Guitar Tabs for Ekaristi - Putut Pudyantoro

Intro:       Am           D          Bm    E     Am          G     Em    Am    D     G
E|--10-8--7--0-----5--------2--3--5--10----------8-----------7-----------5-----------3--------------
B|--------------------------------------------------------------------------------------------------
G|--------------------------------------------------------------------------------------------------
D|--------------------------------------------------------------------------------------------------
A|--------------------------------------------------------------------------------------------------
E|--------------------------------------------------------------------------------------------------
    Mari  memu     ji       karya ila      hi       ekaristi          sakramen yg suci
E|-----------5-----3-----------------0-----------------------0--------0--2--2--3--5-----------------
B|--0--1--3-----------------0--1--3--------3--------0--1--3--------------------------3--------------
G|--------------------------------------------------------------------------------------------------
D|--------------------------------------------------------------------------------------------------
A|--------------------------------------------------------------------------------------------------
E|--------------------------------------------------------------------------------------------------
    Mari bersyu    kur      kepada   Tu    han      atas kasih        yg seagung  ini
E|-----3--7--7-----5-----------------5-----3--------3--2--3--0--------0--2--3--5--7--5--------------
B|--3-----------------------0--1--0-----------------------------------------------------------------
G|--------------------------------------------------------------------------------------------------
D|--------------------------------------------------------------------------------------------------
A|--------------------------------------------------------------------------------------------------
E|--------------------------------------------------------------------------------------------------
    Pezi  a  rah  an        umat  beri     man      merindukan        perjamuan  Tuhan
E|-----------5-----3-----------------0-----------------------0--------0--2--2--3--5--7--------------
B|--0--1--3-----------------0--1--3--------3--------0--1--3-----------------------------------------
G|--------------------------------------------------------------------------------------------------
D|--------------------------------------------------------------------------------------------------
A|--------------------------------------------------------------------------------------------------
E|--------------------------------------------------------------------------------------------------
    Dipersatu     kan       kita semu      a        dalam korban      cinta maha mulia
E|--7--5--7--8-----5--------2--3--5--7-----3--------3--2--3--0--------0--2--3--7--5--3-----------------
B|-----------------------------------------------------------------------------------------------------
G|-----------------------------------------------------------------------------------------------------
D|-----------------------------------------------------------------------------------------------------
A|-----------------------------------------------------------------------------------------------------
E|-----------------------------------------------------------------------------------------------------
    Dengan me       nyambut  Tubuh dan da      rah nya  hadirlah       Kristus  menguatkan        jiwa
E|-----0--1--------0-----------------------------0-----0--2--3--------2--0-----0--2--3--7--------8--5-----
B|--3-----------------3-----0--1--3--3--------1-----------------------------------------------------------
G|--------------------------------------------------------------------------------------------------------
D|--------------------------------------------------------------------------------------------------------
A|--------------------------------------------------------------------------------------------------------
E|--------------------------------------------------------------------------------------------------------
    Di dalam        kebenaran   sabda    Nya      iman ki ta        di te    guh  kan
E|--2--0--------------7--2--3--5--5-----3--------3--5--7--0--------0--8-----7-----5-----3-----5--
B|--------3--------3-----------------------------------------------------------------------------
G|-----------------------------------------------------------------------------------------------
D|-----------------------------------------------------------------------------------------------
A|-----------------------------------------------------------------------------------------------
E|-----------------------------------------------------------------------------------------------
    Kita di u     tus       membawa da    mai       mewartakan        kabar suka  cita
E|-----------5-----3-----------------0-----------------------0--------0--2--2--3--5--10-------------
B|--0--1--3-----------------0--1--3--------3--------0--1--3-----------------------------------------
G|--------------------------------------------------------------------------------------------------
D|--------------------------------------------------------------------------------------------------
A|--------------------------------------------------------------------------------------------------
E|--------------------------------------------------------------------------------------------------
    Berbagi cin    ta       pada se  sa          ma          sla         ma          nya
E|--10-8--7--0-----5--------2--3--5--10----------8-----------7-----------5-----------3--------------
B|--------------------------------------------------------------------------------------------------
G|--------------------------------------------------------------------------------------------------
D|--------------------------------------------------------------------------------------------------
A|--------------------------------------------------------------------------------------------------
E|--------------------------------------------------------------------------------------------------

Paste any tab in acousterr's tab maker and we'll play it !!!
Now supports capo and sound effects for vibrato/pull-off/hammer/bends/mutes etc !!! Checkout help section
tabs and chords, guitar tabs, music transcription, music technology, deep learning, music information retrieval, transcribe into tabs & chords, chordify, music renditions, songsterr, reverbnation, tabulature, bollywood chords, ultimate guitar, yousician, guitar lessons, acoustic guitar, electric guitar, guitar tuner, 911 tabs