Guitar Tabs for Burung Pipit Yang Kecil

(/) Slide Up  (\) Slide Down  (h) Hammer On  (p) Pull Off  (b) Bend (r) Release (v) Vibrato (x) Muted

Tabs for Song : 

Song lyrics here
E|--3--3--0--3--1--0--------1--1-----5--3--1--0-----
B|--------------------3-----------3-----------------
G|--------------------------------------------------
D|--------------------------------------------------
A|--------------------------------------------------
E|--------------------------------------------------

E|--3--3--0--8--7-----5-----3--0--1-----------------
B|-----------------------------------3--3-----1-----
G|--------------------------------------------------
D|--------------------------------------------------
A|--------------------------------------------------
E|--------------------------------------------------

Song lyrics here
E|--
B|--
G|--
D|--
A|--
E|--

Paste any tab in acousterr's tab maker and we'll play it !!!
Now supports capo and sound effects for vibrato/pull-off/hammer/bends/mutes etc !!! Checkout help section

Guitar Tabs for Burung Pipit Yang Kecil





E|--0-----------1-----1-----1-----------3-----0-----
B|--1-----------1-----3-----1-----------3-----1-----
G|--0-----------2-----2-----2-----------4-----0-----
D|--2-----------3-----0-----3-----------5-----2-----
A|--3-----------3-----------3-----------5-----3-----
E|--------------1-----------1-----------3-----------

E|--0-----------3-----1-----0-----------3-----0-----
B|--1-----------3-----1-----1-----------3-----1-----
G|--0-----------4-----2-----0-----------4-----0-----
D|--2-----------5-----3-----2-----------5-----2-----
A|--3-----------5-----3-----3-----------5-----3-----
E|--------------3-----1-----------------3-----------


E|--
B|--
G|--
D|--
A|--
E|--

tabs and chords, guitar tabs, music transcription, music technology, deep learning, music information retrieval, transcribe into tabs & chords, chordify, music renditions, songsterr, reverbnation, tabulature, bollywood chords, ultimate guitar, yousician, guitar lessons, acoustic guitar, electric guitar, guitar tuner, 911 tabs