Guitar Tabs for Jadikan Hatiku Istana Cintamu Intro

(/) Slide Up  (\) Slide Down  (h) Hammer On  (p) Pull Off  (b) Bend (r) Release (v) Vibrato (x) Muted

Tabs for Song

Song lyrics here      Em                      D                       C                       Bm
E|--------7-----5-----3--------------------3--3-----3--------5-----7--7-----0--0--------------------
B|--------------------------------------------------------------------------------------------------
G|--------------------------------------------------------------------------------------------------
D|--------------------------------------------------------------------------------------------------
A|--------------------------------------------------------------------------------------------------
E|--------------------------------------------------------------------------------------------------

Song lyrics here      Am                      D                       G                       D
E|--------2-----3-----8-----------------------7-----------------------3--
B|--3--------------------------------------------------------------------
G|-----------------------------------------------------------------------
D|-----------------------------------------------------------------------
A|-----------------------------------------------------------------------
E|-----------------------------------------------------------------------

Paste any tab in acousterr's tab maker and we'll play it !!!
Now supports capo and sound effects for vibrato/pull-off/hammer/bends/mutes etc !!! Checkout help section

Guitar Tabs for Jadikan Hatiku Istana Cintamu Intro





E|--------------------0-----------------------2-----------------------0-----------------------2--
B|--------------------0-----------------------3-----------------------1-----------------------3-----
G|--------------------0-----------------------2-----------------------0-----------------------4-----
D|--------------------2-----------------------0-----------------------2-----------------------4-----
A|--------------------2-----------------------------------------------3-----------------------2-----
E|--------------------0-----------------------------------------------------------------------------


E|--------------------0-----------------------2-----------------------3-----------------------2--
B|--------------------1-----------------------3-----------------------3-----------------------3--
G|--------------------2-----------------------2-----------------------4-----------------------2--
D|--------------------2-----------------------0-----------------------5-----------------------0--
A|--------------------0-----------------------------------------------5--------------------------
E|--------------------------------------------------------------------3--------------------------

tabs and chords, guitar tabs, music transcription, music technology, deep learning, music information retrieval, transcribe into tabs & chords, chordify, music renditions, songsterr, reverbnation, tabulature, bollywood chords, ultimate guitar, yousician, guitar lessons, acoustic guitar, electric guitar, guitar tuner, 911 tabs