Guitar Tabs for Terimalah Di Hatimu - Putut Pudyantoro

(/) Slide Up  (\) Slide Down  (h) Hammer On  (p) Pull Off  (b) Bend (r) Release (v) Vibrato (x) Muted

Tabs for Song : 

Intro:
          Am          D           Em          A           G           D           G           D
E|--0--0--5--------3--2-----------3-----2--3--5-----3--5--7--7--------5--3-----2--3-----------------
B|-----------------------------0-----------------------------------3--------------------------------
G|--------------------------------------------------------------------------------------------------
D|--------------------------------------------------------------------------------------------------
A|--------------------------------------------------------------------------------------------------
E|--------------------------------------------------------------------------------------------------

        G             A           D                       Dm          G        C              G/B
  Bersujud         kami     di altar    Mu          bersyukur         kami kepada       Mu
E|--------------------0-----------------------------------------------------------------------------
B|--------0-----------------3--2--3-----------------------3-----------0--0--1--3--3-----------------
G|--0--2-----------0--------------------2-----------2--2--------------------------------0-----------
D|--------------------------------------------------------------------------------------------------
A|--------------------------------------------------------------------------------------------------
E|--------------------------------------------------------------------------------------------------
      Am           D          Bm          Em            C          A7             D           D7
    Atas        kasih    kemurah-       anMu       yang ha-  dir   setia se-   lalu
E|--------------------------0--2--------------------------------------------------------------------
B|-----1--------0--------3--------------3--0-----------------------------------3--------------------
G|--0--------------2--------------------------------2--0-----0-----0-----0--------2-----------------
D|--------------------------------------------------------------------2-----------------------------
A|--------------------------------------------------------------------------------------------------
E|--------------------------------------------------------------------------------------------------
       G                A         D                         Dm           G             C
   Inilah         yang ka-  mi mili-      ki           harapan           dan niat yang murni
E|-----------------3--0-----------0--------------------------------------------------------------------------
B|--------0-----------------3--2--------3--3-----------------3-----------0--0--1--3--3-----------------------
G|--0--2-----------------------------------------------2--2--------------------------------0--0--------------
D|-----------------------------------------------------------------------------------------------------------
A|-----------------------------------------------------------------------------------------------------------
E|-----------------------------------------------------------------------------------------------------------
       Am          D           Bm          Em           C          A7          D            D7
    Jadi        abdi     cinta se-      jati        berkar-  ya    setulus  hati
E|--------------------------0--2--------------------------------------------------------------------
B|-----1--------0--------3--------------3--0--------------------------------5--3--------------------
G|--0--------------2--------------------------------2--0-----0-----0-----0--------------------------
D|--------------------------------------------------------------------2-----------------------------
A|--------------------------------------------------------------------------------------------------
E|--------------------------------------------------------------------------------------------------

Chorus:
          G           Em          Am          D           D            D          G                 D
    Trimalah       ya Tuhan    di ha-      timu     persemba-      han ka-     mi u-    mat Mu
E|-----------------------3-----------------7--5-----5--3--2--------2--2--------0--0--------------------
B|--0--1--3--------3--3--------0--1-----------------------------------------------------3--3-----------
G|-----------------------------------------------------------------------------------------------------
D|-----------------------------------------------------------------------------------------------------
A|-----------------------------------------------------------------------------------------------------
E|-----------------------------------------------------------------------------------------------------
         G            G7          C             E7          Am             D         Em           A
    Ubahlah        roti dan    anggur   ini            jadi tu-       buh dan     darah    nan suci
E|-----------------------7-----5--5-----3--0-----------0--0--5--------3--2-----------3-----2--3--5-----
B|--0--1--3--------3--3-----------------------------------------------------------0--------------------
G|-----------------------------------------------------------------------------------------------------
D|-----------------------------------------------------------------------------------------------------
A|-----------------------------------------------------------------------------------------------------
E|-----------------------------------------------------------------------------------------------------
            G         D           G
    sumber nadi    iman in-    sani
E|--3--5--7--7--------5--3-----2--3----------------
B|-----------------3-----------------------------
G|-----------------------------------------------
D|-----------------------------------------------
A|-----------------------------------------------
E|-----------------------------------------------

Paste any tab in acousterr's tab maker and we'll play it !!!
Now supports capo and sound effects for vibrato/pull-off/hammer/bends/mutes etc !!! Checkout help section
tabs and chords, guitar tabs, music transcription, music technology, deep learning, music information retrieval, transcribe into tabs & chords, chordify, music renditions, songsterr, reverbnation, tabulature, bollywood chords, ultimate guitar, yousician, guitar lessons, acoustic guitar, electric guitar, guitar tuner, 911 tabs