Guitar Tabs for Ek Ladki Ko Dekha Kumar Sanu

Intro
E|--------8--10--8h10p8--------------------8--------8-----10/13----
B|---8/11----------------11-----------8/11----11-------------------
G|-----------------------------10----------------------------------
D|-----------------------------------------------------------------
A|-----------------------------------------------------------------
E|-----------------------------------------------------------------


E|--------8--10--8h10p8--------------------8--------8--10/13----
B|---8/11----------------11-----------8/11----11----------------
G|-----------------------------10-------------------------------
D|--------------------------------------------------------------
A|--------------------------------------------------------------
E|--------------------------------------------------------------

Ek ladki ko dekha...
E|-----------------------------------------------------8-----------------8-----------------------------
B|--11----11-------11----11----11----11----10----11----------10----11----------10----11/13----11-11----
G|--10----10-------10----10----------------------------------------------------------------------------
D|-----------------------------------------------------------------------------------------------------
A|-----------------------------------------------------------------------------------------------------
E|-----------------------------------------------------------------------------------------------------

jaise khilta gulab
jaise shayar ka khwab
E|-----------------------------------------------------------------
B|--11----11----10h11p10----10-8-----10----11----10h11p10----10-8--
G|-----------------------10-------------------------------10-------
D|-----------------------------------------------------------------
A|-----------------------------------------------------------------
E|-----------------------------------------------------------------

jaise ujili kiran
jaise bun mein hiran
E|--------------------------------------------------------------------------
B|--10----11----10h11p10----10-8-----8-----8-----------8--6--6-----6--6-----
G|-----------------------10-----------------------5/7-----------------------
D|--------------------------------------------------------------------------
A|--------------------------------------------------------------------------
E|--------------------------------------------------------------------------

jaise chandani raat
jaise narmi ki baat jaise
E|-----------------------------------6--------------------
B|--------8--6--6-----8--8--------------8--6-----6--6-----
G|---5/7------------------------5/8-----------------------
D|--------------------------------------------------------
A|--------------------------------------------------------
E|--------------------------------------------------------

mandir mein hoo
ek jalta diyaaa hoo
E|--------6--8--8-----8--8--------6--8--8--8--8--8--8--8--8---8h10p8--------
B|---4/6---------------------4/6--------------------------------------11----
G|--------------------------------------------------------------------------
D|--------------------------------------------------------------------------
A|--------------------------------------------------------------------------
E|--------------------------------------------------------------------------

ek ladki ko dekha toh aisa laga...
E|-----------------------------8-----------------8-----------------------------
B|---8/11----11----10----11----------10----11----------10----11/15----11-11----
G|-----------------------------------------------------------------------------
D|-----------------------------------------------------------------------------
A|-----------------------------------------------------------------------------
E|-----------------------------------------------------------------------------

End solo
E|-----------5-----8-----6--------------5-----8-----6--------------6--------------------------------------------------
B|---4/6------------------------4/6------------------------4/6-----------6-----8--------------------8-----6---6/11----
G|------------------------------------------------------------------------------------5/7-----8-----------------------
D|--------------------------------------------------------------------------------------------------------------------
A|--------------------------------------------------------------------------------------------------------------------
E|--------------------------------------------------------------------------------------------------------------------

tabs and chords, guitar tabs, music transcription, music technology, deep learning, music information retrieval, transcribe into tabs & chords, chordify, music renditions, songsterr, reverbnation, tabulature, bollywood chords, ultimate guitar, yousician, guitar lessons, acoustic guitar, electric guitar, guitar tuner, 911 tabs