Guitar Tabs for Egotistic

(/) Slide Up  (\) Slide Down  (h) Hammer On  (p) Pull Off  (b) Bend (r) Release (v) Vibrato (x) Muted

EGOTISTIC - MAMAMOO

Song lyrics here
D|--0------------------
A|-----0--------------
F|--------0-----------
C|-----------4--------
G|--------------2-----
D|-----------------0--

D|--------------------------------------------------------------------------------------------------
A|-----------------------------7--8--10-8--7--------------------------------------------------------
F|-----------------------4--9-----------------9--7--5--4--------------------------------------------
C|-----------------4--5-----------------------------------7--5--------4--1--4-----------------------
G|-----------2--7-----------------------------------------------7--6-----------3--2--0--------------
D|--0--2--3-----------------------------------------------------------------------------3--2--------

D|--------------------0--\
A|-----------------0-----
F|--------------0--------
C|-----------4-----------
G|--------2--------------
D|-----0-----------------

Song lyrics here
D|--------15----------14----------12----------12----------14----------15------
A|-----------17----------15----------13----------13----------15----------17-
F|-----16----------14----------12----------12----------14----------16-------
C|--14----------12----------10----------10----------12----------14----------
G|--------------------------------------------------------------------------
D|--------------------------------------------------------------------------

Paste any tab in acousterr's tab maker and we'll play it !!!
Now supports capo and sound effects for vibrato/pull-off/hammer/bends/mutes etc !!! Checkout help section
tabs and chords, guitar tabs, music transcription, music technology, deep learning, music information retrieval, transcribe into tabs & chords, chordify, music renditions, songsterr, reverbnation, tabulature, bollywood chords, ultimate guitar, yousician, guitar lessons, acoustic guitar, electric guitar, guitar tuner, 911 tabs