Guitar Tabs for Dilbar Dilbar

(/) Slide Up  (\) Slide Down  (h) Hammer On  (p) Pull Off  (b) Bend (r) Release (v) Vibrato (x) Muted

Tabs for Song : 
e|-----------------------------------------------------------------------------------------------------------
b|--------3--3--3--------------------------3--3--3-----------------------3--3--3-----------------------------
g|--2--2--------------5--4--5--4--2--2--2-----------5--4--5--4--2--2--2-----------5--4--5--4--2-----2-----2--
d|-----------------------------------------------------------------------------------------------5-----5-----
A|-----------------------------------------------------------------------------------------------------------
E|-----------------------------------------------------------------------------------------------------------

e|-----------------------------------------------------------------------------------------------------------
b|--------3--3--3--------------------------3--3--3-----------------------3--3--3-----------------------------
g|--2--2--------------5--4--5--4--2--2--2-----------5--4--5--4--2--2--2-----------5--4--5--4--2-----2-----2--
d|-----------------------------------------------------------------------------------------------5-----5-----
A|-----------------------------------------------------------------------------------------------------------
E|-----------------------------------------------------------------------------------------------------------

E|-----------------------------------------------------------------------------------------------
B|-----------------------------------------------------------------------------------------------
g|--2--4---4/5--5--4--2--4--4---4/5--5--4--2--4--4---4/5--5--4--2--4--4---5/7--5--4--2--4--4--2--
D|-----------------------------------------------------------------------------------------------
A|-----------------------------------------------------------------------------------------------
E|-----------------------------------------------------------------------------------------------

e|--------------------------------------------------------------------------------------
b|-----------3-----------------------------------------------3--------------------------
g|-----2--4-----4--2---2/4--4--2---2/4--2--------------2--4--------4--2---2/4--4--4--2--
d|--5-----------------------------------------5-----------------------------------------
A|--------------------------------------------------------------------------------------
E|--------------------------------------------------------------------------------------

E|-----------------------------------------------
B|-----------------------------------------------
g|-----2-----2-----2-----5-----4--2--4--2--4--2--
d|--5-----5-----5--------------------------------
A|-----------------------------------------------
E|-----------------------------------------------

E|-----------------------------------------------------------
B|-----------------------------------------------------------
g|-----2--2-----2--2-----2-----5-----4--4--2--4--4--2--4--2--
d|--5--------5--------5--------------------------------------
A|-----------------------------------------------------------
E|-----------------------------------------------------------

e|-----------------------------------------------------------------------------------------------------------
b|--------3--3--3--------------------------3--3--3-----------------------3--3--3-----------------------------
g|--2--2--------------5--4--5--4--2--2--2-----------5--4--5--4--2--2--2-----------5--4--5--4--2-----2-----2--
d|-----------------------------------------------------------------------------------------------5-----5-----
A|-----------------------------------------------------------------------------------------------------------
E|-----------------------------------------------------------------------------------------------------------

E|-----------------------------------------------------------------------------------------------------------------
B|-----------------------------------------------------------------------------------------------------------------
g|--0--0--2---2h-4p2-----4-----4--4---4/5--4--4--2--2--0--0--2---2h-4p2-----4--4--4---4/5--4--4--2--2--------------
d|--------------------5--------------------------------------------------5--------------------------------5--3--2--
A|-----------------------------------------------------------------------------------------------------------------
E|-----------------------------------------------------------------------------------------------------------------

E|-----------------------------------------------------------------------------------------
B|-----------------------------------------------------------------------------------------
g|---4/5--5--4--2--4--4---4/5--5--4--2--4--4---4/5--5--4--2--4--4---5/7--5--4--2--4--4--2--
D|-----------------------------------------------------------------------------------------
A|-----------------------------------------------------------------------------------------
E|-----------------------------------------------------------------------------------------

e|--------------------------------------------------------------------------------------
b|-----------3-----------------------------------------------3--------------------------
g|-----2--4-----4--2---2/4--4--2---2/4--2--------------2--4--------4--2---2/4--4--4--2--
d|--5-----------------------------------------5-----------------------------------------
A|--------------------------------------------------------------------------------------
E|--------------------------------------------------------------------------------------

E|-----------------------------------------------
B|-----------------------------------------------
g|-----2-----2-----2-----5-----4--2--4--2--4--2--
d|--5-----5-----5--------------------------------
A|-----------------------------------------------
E|-----------------------------------------------

E|-----------------------------------------------------------
B|-----------------------------------------------------------
g|-----2--2-----2--2-----2-----5-----4--4--2--4--4--2--4--2--
d|--5--------5--------5--------------------------------------
A|-----------------------------------------------------------
E|-----------------------------------------------------------

Song lyrics here
E|--
B|--
G|--
D|--
A|--
E|--

Song lyrics here
E|--
B|--
G|--
D|--
A|--
E|--

Paste any tab in acousterr's tab maker and we'll play it !!!
Now supports capo and sound effects for vibrato/pull-off/hammer/bends/mutes etc !!! Checkout help section
tabs and chords, guitar tabs, music transcription, music technology, deep learning, music information retrieval, transcribe into tabs & chords, chordify, music renditions, songsterr, reverbnation, tabulature, bollywood chords, ultimate guitar, yousician, guitar lessons, acoustic guitar, electric guitar, guitar tuner, 911 tabs