Guitar Tabs for Dilbar Mere

Sochoge bare...
E|--------------------------------------------------------------------------
B|---------------------------------------------------9h10p9-----------------
G|---9/11-11----11-11----11----11-11----11----11-11----------11----9--8-----
D|--------------------------------------------------------------------------
A|--------------------------------------------------------------------------
E|--------------------------------------------------------------------------


ghirjaoge...
E|--------------------------------------------------------------------------------------------------
B|---7/9--9-----9------9h10p9-----9-----9---9h10p9-----9-----9-----9--10-10-10-10/-9/7--------------
G|--------------------------------------------------------------------------------------------------
D|--------------------------------------------------------------------------------------------------
A|--------------------------------------------------------------------------------------------------
E|--------------------------------------------------------------------------------------------------

Sochoge bare...
E|--------------------------------------------------------------------------------
B|-----------------------------------------------------10h12p10-------------------
G|---9/11-11----11-11----11----11-11----11----11-11----------------11----9--8-----
D|--------------------------------------------------------------------------------
A|--------------------------------------------------------------------------------
E|--------------------------------------------------------------------------------




ghirjaoge...
E|--------------------------------------------------------------------------------
B|---7/9--9-----9------9h10p9-----9-----9---9h10p9-----9-----9-----9--10-10-10-10-
G|--------------------------------------------------------------------------------
D|--------------------------------------------------------------------------------
A|--------------------------------------------------------------------------------
E|--------------------------------------------------------------------------------


dil....
E|------9/12----10-9---9h10p9---------9/10----9------9h10p9--9-----------9-----
B|-----------------------------12----------------12----------------12----------
G|-----------------------------------------------------------------------------
D|-----------------------------------------------------------------------------
A|-----------------------------------------------------------------------------
E|-----------------------------------------------------------------------------


main aag
E|--10----10----10--9h10p9--9-----------9-----------------------------------------------------------------
B|-----------------------------12-12-------10-------------------------------12----10----9---9h10p9--------
G|-----------------------------------------------11-------------10----11----------------------------11----
D|-----------------------------------------------------11-11----------------------------------------------
A|--------------------------------------------------------------------------------------------------------
E|--------------------------------------------------------------------------------------------------------

dilbar mere
E|--------------------9------9h10-9-----------9------9h10-9------------9h10-9-----------------
B|-----------------10-------------------10----------------------10----------------10----12----
G|-----------11-------------------------------------------------------------------------------
D|---9/11-------------------------------------------------------------------------------------
A|--------------------------------------------------------------------------------------------
E|--------------------------------------------------------------------------------------------

main aag
E|--10----10----10--9h10p9--9-----------9-----------------------------------------------------------------
B|-----------------------------12-12-------10-------------------------------12----10----9---9h10p9--------
G|-----------------------------------------------11-------------10----11----------------------------11----
D|-----------------------------------------------------11-11----------------------------------------------
A|--------------------------------------------------------------------------------------------------------
E|--------------------------------------------------------------------------------------------------------
tabs and chords, guitar tabs, music contests, music covers, songsterr, reverbnation, renditions, tabulature, bollywood chords, ultimate guitar, yousician, guitar lessons, torrins, fender, gibson, acoustic guitar, electric guitar, youtube covers, gootar, guitar tuner, A-Z tabs, 911 tabs