Guitar Tabs for Dil Ne Tumko Chun Lia Hai

(/) Slide Up  (\) Slide Down  (h) Hammer On  (p) Pull Off  (b) Bend (r) Release (v) Vibrato (x) Muted

Tabs for Song : A minor

Song lyrics here
E|-----------------------------------------------------------------
B|--------0--------------0-----------------------------------------
G|-----2-----2--------2-----2-----2--0--0--0---0h2--------0--0-----
D|--2--------------2--------------------------------3--2--------3--
A|-----------------------------------------------------------------
E|-----------------------------------------------------------------

E|--------------------------
B|-----------0--------------
G|--------------------------
D|--2--0--2-----2--0--2--2--
A|--------------------------
E|--------------------------

E|-----------------------------------------
B|-----0--3--3------3h5--1--0-----0--0-----
G|--0-----------------------------------2--
D|-----------------------------------------
A|-----------------------------------------
E|-----------------------------------------

E|-----------------------------------------------------------
B|-----0-----------------------0--------0-----3-----0--0-----
G|--2-----0---2h4--2--0-----2-----0--2-----0--------------2--
D|-----------------------------------------------------------
A|-----------------------------------------------------------
E|-----------------------------------------------------------

Song lyrics here
E|--
B|--
G|--
D|--
A|--
E|--

Paste any tab in acousterr's tab maker and we'll play it !!!
Now supports capo and sound effects for vibrato/pull-off/hammer/bends/mutes etc !!! Checkout help section
tabs and chords, guitar tabs, music transcription, music technology, deep learning, music information retrieval, transcribe into tabs & chords, chordify, music renditions, songsterr, reverbnation, tabulature, bollywood chords, ultimate guitar, yousician, guitar lessons, acoustic guitar, electric guitar, guitar tuner, 911 tabs