Guitar Tabs for Dil Me Ho Tum - Cheat India

Chal diya dil tere peechhe peechhe
Dekhta main reh gaya
E|---4/7--6--7------6/7--6---7/9--7--6---6h-7p6-----------------------------------------
B|-----------------------------------------------9---9/11-9--11----9--11----11/12-11----
G|--------------------------------------------------------------------------------------
D|--------------------------------------------------------------------------------------
A|--------------------------------------------------------------------------------------
E|--------------------------------------------------------------------------------------


Kuchh to hai tere mere darmiyan
Jo ankaha sa reh gaya
E|---4/7--6--7-----6---6h-7p6--------6--7---9/11-9--7---6h-7p6-----------------------------------------
B|-----------------------------9--9-----------------------------9---9/11-9--11----9--11----11/12-11----
G|-----------------------------------------------------------------------------------------------------
D|-----------------------------------------------------------------------------------------------------
A|-----------------------------------------------------------------------------------------------------
E|-----------------------------------------------------------------------------------------------------


Main jo kabhi keh na saka
E|--------9--11-9--11-----9h11p9-----------9--11-9--11-----9h11p9--------
B|--11/12-------------------------12----12-------------------------12----
G|-----------------------------------------------------------------------
D|-----------------------------------------------------------------------
A|-----------------------------------------------------------------------
E|-----------------------------------------------------------------------


Aaj kehta hoon pehli dafa
E|--------9--11/12-11--9h11p9--------9--9--9--11--9h11p9-----9--------
B|--11/12----------------------12-11----------------------12----11----
G|--------------------------------------------------------------------
D|--------------------------------------------------------------------
A|--------------------------------------------------------------------
E|--------------------------------------------------------------------


Dil mein ho tum, aankhon mein tum
E|-----------------------------------------------------------
B|--9--11----11-11/12-12\11\9---9/11-9--11--9h11p9---9\7--7--
G|-----------------------------------------------------------
D|-----------------------------------------------------------
A|-----------------------------------------------------------
E|-----------------------------------------------------------

Pahli nazar se hi yaara
E|--------------------------------------------------------
B|--7---9/11-11----11-11-11/12-11--9/11----9--11/12-11----
G|--------------------------------------------------------
D|--------------------------------------------------------
A|--------------------------------------------------------
E|--------------------------------------------------------

Yeh ishq ki hai saazishein
E|--------------------------------------------------------
B|--9--11-11-11/12-12\11\9---9/11-9--11--9h11p9---9\7--7--
G|--------------------------------------------------------
D|--------------------------------------------------------
A|--------------------------------------------------------
E|--------------------------------------------------------

Lo aa mille hum dobara
E|--------------------------------------------
B|--7---9/11-11----11-11-11/12-11--9/11----9--
G|--------------------------------------------
D|--------------------------------------------
A|--------------------------------------------
E|--------------------------------------------

sarfira sa me mushafir
E|-----------------------------------------------------------------------
B|-----7--9---9/11-9--11-9--9-----9------7/9--9--9--9---9/11-9---7/9--7--
G|-----------------------------------------------------------------------
D|-----------------------------------------------------------------------
A|-----------------------------------------------------------------------
E|-----------------------------------------------------------------------

fir meri awargiko...
E|-----------------------------------------------------
B|---------9/11-11-11--9\7--9---9/11-11----11/12\11p9--
G|-----8-----------------------------------------------
D|-----------------------------------------------------
A|-----------------------------------------------------
E|-----------------------------------------------------


aane lage khawb tere
E|--------------------------------------
B|---9/11-11-11-11-11/12-11--9/11----9--
G|--------------------------------------
D|--------------------------------------
A|--------------------------------------
E|--------------------------------------

ye pyaar bhi kya kaid hai...
E|-----------------------------------------------------------------------
B|--9-----11-12-12/14----14p12\11----7------9/12-11-12-11----12p11\9-----
G|-----------------------------------------------------------------------
D|-----------------------------------------------------------------------
A|-----------------------------------------------------------------------
E|-----------------------------------------------------------------------

Koi hona na chahey riha..
E|--------9--11/12-11--9h11p9--------9--9--9--11--9h11p9-----9--------
B|--11/12----------------------12-11----------------------12----11----
G|--------------------------------------------------------------------
D|--------------------------------------------------------------------
A|--------------------------------------------------------------------
E|--------------------------------------------------------------------

Dil mein ho tum, aankhon mein tum
E|--------------------------------------------------------
B|--9--11-11-11/12-12\11\9---9/11-9--11--9h11p9---9\7--7--
G|--------------------------------------------------------
D|--------------------------------------------------------
A|--------------------------------------------------------
E|--------------------------------------------------------

Pahli nazar se hi yaara
E|--------------------------------------------
B|--7---9/11-11----11-11-11/12-11--9/11----9--
G|--------------------------------------------
D|--------------------------------------------
A|--------------------------------------------
E|--------------------------------------------
tabs and chords, guitar tabs, music transcription, music technology, deep learning, music information retrieval, transcribe into tabs & chords, chordify, music renditions, songsterr, reverbnation, tabulature, bollywood chords, ultimate guitar, yousician, guitar lessons, acoustic guitar, electric guitar, guitar tuner, 911 tabs