Guitar Tabs for Tum Hi Ho

(/) Slide Up  (\) Slide Down  (h) Hammer On  (p) Pull Off  (b) Bend (r) Release (v) Vibrato (x) Muted

Tabs for Song :tum hi ho 
BPM : 200

intro
E|--------8-----9-----------------8-----9-----------
B|-----9-----------9--11-8-----9-----------9--11-8--
G|--10----------------------10----------------------
D|--------------------------------------------------
A|--------------------------------------------------
E|--------------------------------------------------
hum tere bin ab reh nahi sakte tere bina kay wajood mera
E|-----------------------------------------------------------------------------------------------
B|-----------6-----------------------------------------------------------------------------------
G|-----5--------8--8--6--6--5-----------6--5-----5-----------------------------------------------
D|-----------------------------8--6--8-----------------8-----8--6--8-----8--6---5h6--------------
A|-----------------------------------------------------------------------------------8--6---6/8--
E|-----------------------------------------------------------------------------------------------
tujh se juda gar ho jaayenge to khud se hi ho jaayenge judaa
E|--------------------------------------------------------------------------------------------------
B|-----------6--------------------------------------------------------------------------------------
G|-----5--5-----8--8--6--6--5-----------6--5-----5--------------------------------------------------
D|-----------------------------8--6--8--------------8-----8-----8--6--8-----8--6---5h6--------------
A|--------------------------------------------------------------------------------------8--6---6/8--
E|--------------------------------------------------------------------------------------------------
kyunki tum hi ho ab tum hi ho jindegi ab tum hi ho jindegi ab tum hi ho
E|--------------------------------------------------------------------------------
B|--------------------------------------------------------------------------------
G|--------------------------------------------------------------------------------
D|-----6--8---8/10-6--8--------6--8---8/10-6--8-----5-----8--6-----5---5h6--------
A|--------------------------------------------------------------------------6--8--
E|--------------------------------------------------------------------------------
oohoo hoo chain vi mera dard vi meri aashiqiab tum hi ho
E|--------------------------------------------------------------------------------------
B|--------------------------------------------------------------------------------------
G|--------------------------------------------------------------------------------------
D|-----5--6--8------8/10-6--8-----6--8---8/10-6--8-----5--5-----8--6-----5---5h6--------
A|--------------------------------------------------------------------------------6--8--
E|--------------------------------------------------------------------------------------
koi lamha mera na ho tere bina har saans pe naam tera 
E|-----------------------------------------------------------------------------------------------------
B|--------------------------------------------------------6---5/6--6-----------------------------------
G|--------------------------------6--6--5--5--4---4/5--5--------------5--5-----3--1--3--1------0h-1p0--
D|--------3---3/5--5--3---3/5--5-----------------------------------------------------------------------
A|-----6-----------------------------------------------------------------------------------------------
E|-----------------------------------------------------------------------------------------------------
tabs and chords, guitar tabs, music transcription, music technology, deep learning, music information retrieval, transcribe into tabs & chords, chordify, music renditions, songsterr, reverbnation, tabulature, bollywood chords, ultimate guitar, yousician, guitar lessons, acoustic guitar, electric guitar, guitar tuner, 911 tabs