Guitar Tabs for Dil Mein Chupa Lunga - Wajah Tum Ho Tabs

(/) Slide Up  (\) Slide Down  (h) Hammer On  (p) Pull Off  (b) Bend (r) Release (v) Vibrato

Tabs for Song : Dil Mein Chup Loonga

Tere saamne aa jaane se
E|-----------------------------------
B|-----------------------------------
G|--6-----6--6-----6--6------6/7--6--
D|-----9--------9--------9-----------
A|-----------------------------------
E|-----------------------------------

Yeh dil mera dhadka hai Yeh ghalti nahi hai teri
E|--------------------------------------------------------------
B|--------------------------------------------------------------
G|--6--6--6--7--6--------6--------------------------------6-----
D|-----------------9--7-----9-----9--7--9--9--7--9--9--7-----9--
A|--------------------------------------------------------------
E|--------------------------------------------------------------

Kusoor nazar ka hai Jis baat ka tujhko darr hai
E|-----------------------------------------------------------
B|-----------------------------------------------------------
G|-----6--6---------------------------------------------4/7--
D|--9--------9--7--6--9--7--5--5--5-----5--5--5--5--5--------
A|-----------------------------------------------------------
E|-----------------------------------------------------------

Woh karke dikha doonga
E|-----------------------------
B|-----------------------------
G|------------------------4/-5h
D|--9--7--------9--7--5--------
A|--------10-10----------------
E|-----------------------------
tabs and chords, guitar tabs, music contests, music covers, songsterr, reverbnation, renditions, tabulature, bollywood chords, ultimate guitar, yousician, guitar lessons, torrins, fender, gibson, acoustic guitar, electric guitar, youtube covers, gootar, guitar tuner, A-Z tabs, 911 tabs