Guitar Tabs for Dil Kyun Teri Ore

(/) Slide Up  (\) Slide Down  (h) Hammer On  (p) Pull Off  (b) Bend (r) Release (v) Vibrato (x) Muted

Tabs & Chords
BPM : 156.0
Check Track 2 for Chord Positions 

    B                                                                                F#       
E|-----------------------------------------------------------------------------0--------------
B|--------------------------12----11----------0-----------0--0-----12----0--------------0--11-
G|--------------------------------------------------------------------------------------------
D|--------------------13-------------------------------------------------------------11-------
A|--------------13----------------------------------------------------------------------------
E|--14----14----------------------------14----------14----------------------------------------

             B                                                                                   
E|--------------------------------------------------------------------13----14-14-12-11-12----11-
B|-----------12-13----14-14-14----12----14----14-14-14----12----14-------------------------------
G|-----14----------------------------------------------------------------------------------------
D|-----------------------------------------------------------------------------------------------
A|-----------------------------------------------------------------------------------------------
E|-----------------------------------------------------------------------------------------------

                E                       B     F#                B                             
E|--11----12-------0--------------------------------0-----------------------------------------
B|--------------14----------0-----0--------------------------------0-----0--------------------
G|--------------------------------------11----------------------------------------------------
D|--------------------------------------------11----------13----------------------------------
A|--------------------13----------------------------------------12-------------13-------13-13-
E|--------------------------------------------------------------------------------14----------

             E           
E|--------------------11-
B|-----------------------
G|-----------------------
D|-----------------------
A|-----11-------11-------
E|-----------14----------

Guitar Tabs for Dil Kyun Teri Ore






    B                                                                                F#       
E|--2--------------------------------------------------------------------------------2--------
B|--4--------------------------------------------------------------------------------2--------
G|--4--------------------------------------------------------------------------------3--------
D|--4--------------------------------------------------------------------------------4--------
A|--2--------------------------------------------------------------------------------4--------
E|-----------------------------------------------------------------------------------2--------

             B                                                                                   
E|-----------2-----------------------------------------------------------------------------------
B|-----------4-----------------------------------------------------------------------------------
G|-----------4-----------------------------------------------------------------------------------
D|-----------4-----------------------------------------------------------------------------------
A|-----------2-----------------------------------------------------------------------------------
E|-----------------------------------------------------------------------------------------------

                E                       B     F#                B                             
E|--------------0-----------------------2-----2-----------------2-----------------------------
B|--------------0-----------------------4-----2-----------------4-----------------------------
G|--------------1-----------------------4-----3-----------------4-----------------------------
D|--------------2-----------------------4-----4-----------------4-----------------------------
A|--------------2-----------------------2-----4-----------------2-----------------------------
E|--------------0-----------------------------2-----------------------------------------------

             E           
E|-----------0-----------
B|-----------0-----------
G|-----------1-----------
D|-----------2-----------
A|-----------2-----------
E|-----------0-----------

tabs and chords, guitar tabs, music transcription, music technology, deep learning, music information retrieval, transcribe into tabs & chords, chordify, music renditions, songsterr, reverbnation, tabulature, bollywood chords, ultimate guitar, yousician, guitar lessons, acoustic guitar, electric guitar, guitar tuner, 911 tabs