Guitar Tabs for Dil Hi Toh Hai

Intro
E|--------------8-----7--------------7-----5--------------3--------------------0-----------
B|-----------5--------------------5--------------------3--------5-----------1--------1-----
G|--------5--------------------5--------------------4--------------------2-----------------
D|-----5--------------------7--------------------5--------------------3--------------------
A|-----------------------------------------------------------------------------------------
E|-----------------------------------------------------------------------------------------


E|-----------13----10-------------10-------------------7-----8-----7--------------------
B|--------10-------------------10-------10----------8--------------------8--------------
G|-----9--------------------9--------------------7--------------------------7-----------
D|--10-------------------10-------------------9--------------------------------9--------
A|--------------------------------------------------------------------------------------
E|--------------------------------------------------------------------------------------

Ye galliyan, ye kooche
E|--------------------------------------------------------
B|--------6--6--5-----------------------------------------
G|---------------------------5/7--7--5------4h-5p4--2-----
D|---3/5---------------3/5--------------------------------
A|--------------------------------------------------------
E|--------------------------------------------------------

Umeed se lambe, yaqeen se oonche
E|--------------------------------------------------------------------
B|--------------8------5h-6p5--6--------------------------------------
G|---------------------------------------------7/10-9---9h10p9--7-----
D|---3/5--7------------------------3/5--7--5--------------------------
A|--------------------------------------------------------------------
E|--------------------------------------------------------------------

Ye kooche, kurpench hai
E|--------------------------------------------------------
B|--------6--6--5-----------------------------------------
G|---------------------------5/7--7--5------4h-5p4--2-----
D|---3/5---------------3/5--------------------------------
A|--------------------------------------------------------
E|--------------------------------------------------------

Dilchasp bhi hain raste ye dil ke
E|--------------------------------------------------------------------
B|--------------8------5h-6p5--6--------------------------------------
G|---------------------------------------------7/10-9---9h10p9--7-----
D|---3/5--7------------------------3/5--7--5--------------------------
A|--------------------------------------------------------------------
E|--------------------------------------------------------------------

Dil hi toh hai (dil dil hai)
E|-----------------------------------------------------------
B|------------------3/6--6--6------------------3/5--5--5-----
G|---4/5--5--4--2---------------4/5--4--2--------------------
D|-----------------------------------------5-----------------
A|-----------------------------------------------------------
E|-----------------------------------------------------------

Dil hi toh hai (dil dil hai)
E|-----------------------------------------------------------
B|------------------3/6--6--6------------------3/5--5--5-----
G|---4/5--5--4--2---------------4/5--4--2--------------------
D|-----------------------------------------5-----------------
A|-----------------------------------------------------------
E|-----------------------------------------------------------

Shartein lagata hai har baar kyun dil
E|-----------------------------------------------------------------
B|--5--6---6/10-8--6--5--6---6/10-8--6--5--6--6------5h-6p5--------
G|-----------------------------------------------------------7-----
D|-----------------------------------------------------------------
A|-----------------------------------------------------------------
E|-----------------------------------------------------------------

Jazbe jagata hai, aur rulata hai kyun
Yaar tu dil...
E|-----------------------------------------------------------------------------
B|--------5---6/8--6---5h-6p5---------6/8--6---5h-6p5--------------------------
G|-----7-----------------------7--7--------------------7--7--7--7--7---7/10-9--
D|-----------------------------------------------------------------------------
A|-----------------------------------------------------------------------------
E|-----------------------------------------------------------------------------

Dil hi toh hai (dil dil hai)
E|-----------------------------------------------------------
B|------------------3/6--6--6------------------3/5--5--5-----
G|---4/5--5--4--2---------------4/5--4--2--------------------
D|-----------------------------------------5-----------------
A|-----------------------------------------------------------
E|-----------------------------------------------------------

Accha sa khaab aaye toh
Humko dikha dena tum
E|--------------------------------------------------------------------------
B|---6/8--8---8\5---5/8--8---8/10-10-----6/8--8---8\5---5/8--8---8/10-10----
G|--------------------------------------------------------------------------
D|--------------------------------------------------------------------------
A|--------------------------------------------------------------------------
E|--------------------------------------------------------------------------

Aankhon mein bharke humko
God mein sula dena tum
E|-----------------------------------------------------------------------------
B|-----------------------------------------------------------------------------
G|---2/5--5---5\2---2/5--5---5/7--5---7/10-10-10\9---7h-9p7---7\5--5--5--5-----
D|-----------------------------------------------------------------------------
A|-----------------------------------------------------------------------------
E|-----------------------------------------------------------------------------
tabs and chords, guitar tabs, music transcription, music technology, deep learning, music information retrieval, transcribe into tabs & chords, chordify, music renditions, songsterr, reverbnation, tabulature, bollywood chords, ultimate guitar, yousician, guitar lessons, acoustic guitar, electric guitar, guitar tuner, 911 tabs