Guitar Tabs for Dil Chahta Hai

intro
E|--------------------------------------------------------------------
B|--------------------------------------------------------------------
G|--------------------------------------------------------------------
D|--------------------------------------------------------------------
A|--------1--3-----3--3-----3--3-----------1--3-----3--3-----3--3-----
E|--1--3-----------------------------1--3-----------------------------
 
Dil Chahta Hai Kabhi Na Beete Chamkile Din
E|-----------------------------------------------------------------------------------
B|------------------3/4--4--3---4/6---3h-4p3--------------------4--3---3h-4p3--------
G|--------3--5--------------------------------5--------3--5--------------------5-----
D|--3--5-----------------------------------------3--5--------------------------------
A|-----------------------------------------------------------------------------------
E|-----------------------------------------------------------------------------------

Dil Chahta Hai Hum Na Rahey Kabhi Yaaro Ke Bin
E|--------------------------------------------------------------------
B|---------------3/4--4--3---4/6---3h-4p3--------------------4--3-----
G|--------3--5-----------------------------5--------3--5--------------
D|--3--5--------------------------------------3--5--------------------
A|--------------------------------------------------------------------
E|--------------------------------------------------------------------

Din Din Bhar Ho Pyari Battein
E|--------------------------------------------------
B|--------------------------------------------------
G|--3--3---2h-3p2-----------2--3--3---2h-3p2--------
D|-----------------3--3--5--------------------5-----
A|--------------------------------------------------
E|--------------------------------------------------

Jhumein Shaamein, Gaaye Raatein
E|--------------------------------------------------
B|--------------------------------------------------
G|--3--3---2h-3p2-----------2--3--3---2h-3p2--------
D|-----------------3--3--5--------------------5-----
A|--------------------------------------------------
E|--------------------------------------------------

Masti Mein Rahey Duba Duba Hamesha Samaa
E|--------------------6--6-----5--3--3--------3--3-----
B|--3--6--3--6--3--3-----------------------6-----------
G|-----------------------------------------------------
D|-----------------------------------------------------
A|-----------------------------------------------------
E|-----------------------------------------------------

filler
E|-----------------------------------
B|---3/4--3-----3--------------------
G|-----------------5---3h-5p3--------
D|-----------------------------5-----
A|-----------------------------------
E|-----------------------------------

Humko Rahon Mein Yuhi Milti Rahey Khushiyan
E|--------------------3--3-----------------------------------
B|--3--6--3--6--3--3-----------6--3--3-----------------------
G|-----------------------------------------3--5-----5--------
D|-----------------------------------------------------------
A|-----------------------------------------------------------
E|-----------------------------------------------------------

Jagmagate Hain, Jhilmilate Hain Apne Raaste
E|--------------------------------------------------------
B|--4--------------4--------------4--4--4-----------------
G|-----5--5--5--3-----5--5--5--3-----------5-----5--3-----
D|--------------------------------------------------------
A|--------------------------------------------------------
E|--------------------------------------------------------

Yeh Khushi Rahey, Roshni Rahey Apne Vaaste
E|-----------------------------------------------------
B|--4--------------4--------------4--4--4--------------
G|-----5--5--5--3-----5--5--5--3-----------5-----5--3--
D|-----------------------------------------------------
A|-----------------------------------------------------
E|-----------------------------------------------------

Oh Oh Oh Oh 
E|--------------3--------------------------------------------3-----------------------------
B|-----------4-----6-----4--3-----------------3-----------4-----6-----4--3-----------------
G|-----3--5-----------------------3-----5-----------3--5-----------------------3------3/5--
D|-----------------------------------------------------------------------------------------
A|-----------------------------------------------------------------------------------------
E|-----------------------------------------------------------------------------------------

Oh Oh Oh Oh 
E|--------------3--------------------------------------------3--------------------------------
B|-----------4-----6-----4--3-----------------4-----------4-----6-----4--3--------------------
G|-----3--5-----------------------3-----5-----------3--5-----------------------3------3/5-----
D|--------------------------------------------------------------------------------------------
A|--------------------------------------------------------------------------------------------
E|--------------------------------------------------------------------------------------------

Kaisa Ajab Yeh Safar Hai
E|--------------------------------------------
B|---3/4--4-----4---3h-4p3--3-----------------
G|-----------------------------5---5/7--7-----
D|--------------------------------------------
A|--------------------------------------------
E|--------------------------------------------

Socho To Har Ik Hi Bekhabar Hai
E|--------------------------------------------------
B|-----------4--4-----4---3h-4p3--3-----------------
G|--------3--------------------------5---5/7--3-----
D|--3--5--------------------------------------------
A|--------------------------------------------------
E|--------------------------------------------------

Usko Jaana Kidhar Hai
E|--------------------------------------------
B|--4--4-----4--4---6/8--6--4---3h-4p3--3-----
G|--------------------------------------------
D|--------------------------------------------
A|--------------------------------------------
E|--------------------------------------------

Jo Waqt Aaye, Jaane Kya Dikhaaye
E|-----------------------------------------------
B|------------6/8--8------6/8--8---6/8--9--8--6--
G|--5--7--8--------------------------------------
D|-----------------------------------------------
A|-----------------------------------------------
E|-----------------------------------------------


Oh Oh Oh Oh
E|-----------3--------------------------------------------3--------------------------------
B|--------4-----6-----4--3-----------------3-----------4-----6-----4--3--------------------
G|--3--5-----------------------3-----5-----------3--5-----------------------3------3/5-----
D|-----------------------------------------------------------------------------------------
A|-----------------------------------------------------------------------------------------
E|-----------------------------------------------------------------------------------------


Oh Oh Oh Oh 
E|--------------3--------------------------------------------3--------------------------------
B|-----------4-----6-----4--3-----------------4-----------4-----6-----4--3--------------------
G|-----3--5-----------------------3-----5-----------3--5-----------------------3------3/5-----
D|--------------------------------------------------------------------------------------------
A|--------------------------------------------------------------------------------------------
E|--------------------------------------------------------------------------------------------
tabs and chords, guitar tabs, music transcription, music technology, deep learning, music information retrieval, transcribe into tabs & chords, chordify, music renditions, songsterr, reverbnation, tabulature, bollywood chords, ultimate guitar, yousician, guitar lessons, acoustic guitar, electric guitar, guitar tuner, 911 tabs