Guitar Tabs for Dil Diyan Gallan

(/) Slide Up  (\) Slide Down  (h) Hammer On  (p) Pull Off  (b) Bend (r) Release (v) Vibrato (x) Muted

Tabs for Song : 
BPM : 200

Song lyrics here
E|--------------------------------------------------------------------------------------
B|--7-----------------------------------------8--8--8--7-----------7--------------------
G|--------9-----7--------7--9---9/11-11-11-9--------------9--7--9-----9--7-----7--9--7--
D|--------------------------------------------------------------------------9-----------
A|--------------------------------------------------------------------------------------
E|--------------------------------------------------------------------------------------

E|-----------------------------------------------------------------------------------9--9--9--7--------------------
B|--------------------8--8--8--7-----------7--------------------7--8---8/12-12-12-10-------------10-8--8--10-10-7--
G|--7--9---9/11-11-9--------------9--7--9-----9--7-----7--9--7-----------------------------------------------------
D|--------------------------------------------------9--------------------------------------------------------------
A|-----------------------------------------------------------------------------------------------------------------
E|-----------------------------------------------------------------------------------------------------------------

E|--------------------9--9--9--7-----------------------------------------------9--7--7--7--7---7p-5p3--9--9--9--
B|--8---8/12-12-12-10-------------10-8--7--5--7--5--7---7/8---8/10-7--7--7--8-----------------------------------
G|--------------------------------------------------------------------------------------------------------------
D|--------------------------------------------------------------------------------------------------------------
A|--------------------------------------------------------------------------------------------------------------
E|--------------------------------------------------------------------------------------------------------------

E|--------------7-----7-----7-----7--------------7-----14-12-10----------7-----14-12-10-10-12-15-15-14-10-12-12-
B|--8--8--8--10----10----10----10----10-10-10-10----10----------10-10-10----10----------------------------------
G|--------------------------------------------------------------------------------------------------------------
D|--------------------------------------------------------------------------------------------------------------
A|--------------------------------------------------------------------------------------------------------------
E|--------------------------------------------------------------------------------------------------------------

E|--10-9--------------------------------------------------------10-7--7--7--7--7--5--3--9--9--9--------------7--
B|--------10-12-10-12-10-12-10-7--7--5--7---7/8---8/10-7--7--8-----------------------------------8--8--8--10----
G|--------------------------------------------------------------------------------------------------------------
D|--------------------------------------------------------------------------------------------------------------
A|--------------------------------------------------------------------------------------------------------------
E|--------------------------------------------------------------------------------------------------------------

E|-----7-----7-----7--------------------------7--7-----7--10-10-9--9--10-9--7--7--5--12-9--------9--12-9--7--5--
B|--10----10----10----10----------7--10--8/10-------10-------------------------------------12-10----------------
G|--------------------------------------------------------------------------------------------------------------
D|--------------------------------------------------------------------------------------------------------------
A|--------------------------------------------------------------------------------------------------------------
E|--------------------------------------------------------------------------------------------------------------

E|--------------------------5-----5--7--6--7--9--12-10----------------------------------------------10-9-----9-----
B|--7--8--7--5--3--5---5/7-----7-----------------------10-12-10----------------10-12-10-------------------12-------
G|--------------------------------------------------------------11\9--9--11-------------11\9---9/11-------------11-
D|--------------------------------------------------------------------------7--------------------------------------
A|-----------------------------------------------------------------------------------------------------------------
E|-----------------------------------------------------------------------------------------------------------------

E|--------------5-----5-----5-----5-----5-----5-----5-----5--7--7--10-7--5--3--7--7--7--10-7--10----10/12-12-
B|-----------7-----7-----7-----7-----7-----7-----7-----7-----------------------------------------10----------
G|--------7--------------------------------------------------------------------------------------------------
D|--7--7-----------------------------------------------------------------------------------------------------
A|-----------------------------------------------------------------------------------------------------------
E|-----------------------------------------------------------------------------------------------------------

E|-----10/12-12-10-9-----------------------------------------------5-----5-----5-----5-----5--7--5-----5-----5--
B|--10----------------12-10-10----------10/12-10-10-8--7--------7-----7-----7-----7-----7-----------7-----7-----
G|-----------------------------12-11-12----------------------7--------------------------------------------------
D|--------------------------------------------------------7-----------------------------------------------------
A|--------------------------------------------------------------------------------------------------------------
E|--------------------------------------------------------------------------------------------------------------

E|--7--7--10-7--5--3--7--7--7--10-7--10----10/12-12----10/12-12-10-9-----------------------------------10-9--7--5--5--
B|--------------------------------------10----------10----------------12-10-10----------10/12-10-12-10----------------
G|-----------------------------------------------------------------------------12-11-12-------------------------------
D|--------------------------------------------------------------------------------------------------------------------
A|--------------------------------------------------------------------------------------------------------------------
E|--------------------------------------------------------------------------------------------------------------------

E|--5--5--7--5--14-12-10-9--10/12-10-9--7--------9--5--5--7--5--14-12-10-5--5--7--15-14-12-10-10-12-15-14-10-12-12-
B|------------------------------------------7/10-------------------------------------------------------------------
G|-----------------------------------------------------------------------------------------------------------------
D|-----------------------------------------------------------------------------------------------------------------
A|-----------------------------------------------------------------------------------------------------------------
E|-----------------------------------------------------------------------------------------------------------------

E|--10-9--------------------------------------------------------10-7--7--7--7--7--5--3--9--9--9--------------7--
B|--------10-12-10-12-10-12-10-7--5--7---7/8---8/10-7--7--7--8-----------------------------------8--8--8--10----
G|--------------------------------------------------------------------------------------------------------------
D|--------------------------------------------------------------------------------------------------------------
A|--------------------------------------------------------------------------------------------------------------
E|--------------------------------------------------------------------------------------------------------------

E|-----7-----7-----7-----------------------------------------------------------------------------
B|--10----10----10----10-7--5--7--8--10----------------------------------------------------------
G|-----------------------------------------7--9--11-11-11-12-12-11-9--7--9--11-9--7-----7--9--7--
D|--------------------------------------9--------------------------------------------9-----------
A|-----------------------------------------------------------------------------------------------
E|-----------------------------------------------------------------------------------------------

E|--------------------------------------------------------------------------------9--9--9--7-----------------
B|--------------------------------------------------------------7--8--12-12-12-10-------------10-8--8--10-10-
G|-----7--9--11-11-11-12-12-11-9--7--9--11-9--7-----7--9--7--------------------------------------------------
D|--9--------------------------------------------9-----------------------------------------------------------
A|-----------------------------------------------------------------------------------------------------------
E|-----------------------------------------------------------------------------------------------------------

E|--------------------9--9--9--7-----------------------------------------9--7--7--7--7--7--------9--9--9-----------
B|--7--8--12-12-12-10-------------10-8--7--5--7--5--7--8--10-7--7--7--8--------------------10-8-----------8--8--8--
G|-----------------------------------------------------------------------------------------------------------------
D|-----------------------------------------------------------------------------------------------------------------
A|-----------------------------------------------------------------------------------------------------------------
E|-----------------------------------------------------------------------------------------------------------------

E|-----7-----7-----7-----7-----------------14-12-10----------15-14-12-10-10-12-15-14-10-12-12-10-9--------------
B|--10----10----10----10----10-10-10-12-10----------10-10-12----------------------------------------10-12-10-12-
G|--------------------------------------------------------------------------------------------------------------
D|--------------------------------------------------------------------------------------------------------------
A|--------------------------------------------------------------------------------------------------------------
E|--------------------------------------------------------------------------------------------------------------

E|-----------------------------------10-7--7--7--7--7--5--3--9--9--9--------------7-----7-----7-----7-----
B|--10-12-10-7--5--7--8--10-7--7--8-----------------------------------8--8--8--10----10----10----10----10-
G|--------------------------------------------------------------------------------------------------------
D|--------------------------------------------------------------------------------------------------------
A|--------------------------------------------------------------------------------------------------------
E|--------------------------------------------------------------------------------------------------------

E|-----------------------=\
B|--7--5--7---7/8---8/10-
G|-----------------------
D|-----------------------
A|-----------------------
E|-----------------------

Song lyrics here
E|--
B|--
G|--
D|--
A|--
E|--

Paste any tab in acousterr's tab maker and we'll play it !!!
Now supports capo and sound effects for vibrato/pull-off/hammer/bends/mutes etc !!! Checkout help section


tabs and chords, guitar tabs, music transcription, music technology, deep learning, music information retrieval, transcribe into tabs & chords, chordify, music renditions, songsterr, reverbnation, tabulature, bollywood chords, ultimate guitar, yousician, guitar lessons, acoustic guitar, electric guitar, guitar tuner, 911 tabs