Dil Diyaan Gallan - Guitar Tabs

(/) Slide Up  (\) Slide Down  (h) Hammer On  (p) Pull Off  (b) Bend (r) Release (v) Vibrato (x) Muted

Tabs for Song : 
BPM : 200

Kacchi doriyon, doriyon, doriyon se
E|-----0-----2--2--2--0-----3--3--3--5-----2--0-----0--
B|--3--------------------------------------------3-----
G|-----------------------------------------------------
D|-----------------------------------------------------
A|-----------------------------------------------------
E|-----------------------------------------------------

Mainu tu baandh le 
E|--2--0-----------0-----
B|--------3--0--3-----3--
G|-----------------------
D|-----------------------
A|-----------------------
E|-----------------------
                             (x2)
Eh naraazgi kaagzi saari teri
E|--------7--7--7-----9--9--9--7--------------------
B|--7--8-----------10-------------10----8--10----7--
G|--------------------------------------------------
D|--------------------------------------------------
A|--------------------------------------------------
E|--------------------------------------------------

Mere sohneya sunn le meri
E|--------7--7--7-----9--9--9--7-----------
B|--7--8-----------10-------------10-8--7--
G|-----------------------------------------
D|-----------------------------------------
A|-----------------------------------------
E|-----------------------------------------

Dil diyan gallan
E|--------------5--------------10-7--7--10-------
B|--7--5--7--8--------7--7--8--------------10-8--
G|-----------------------------------------------
D|-----------------------------------------------
A|-----------------------------------------------
E|-----------------------------------------------

Akh naale akh nu milaa ke
E|--9--9--9--------------7--------------
B|-----------8--8--10-10-------10----10-
G|--------------------------------------
D|--------------------------------------
A|--------------------------------------
E|--------------------------------------
                                         (x2)
                                         
                                         
Sataaye mainu kyun
Dikhaaye mainu kyun

E|--------------14-12-10----------------14-12-10-
B|--10-10-12-10-------------10-10-12-10----------
G|-----------------------------------------------
D|-----------------------------------------------
A|-----------------------------------------------
E|-----------------------------------------------

Aiven jhuthi mutthi russ ke rusaake
E|--10-12-15-15-14-10-12-12-10-9-----------
B|--------------------------------10----10-
G|-----------------------------------------
D|-----------------------------------------
A|-----------------------------------------
E|-----------------------------------------

Dil diyan Gallan...

tabs and chords, guitar tabs, music transcription, music technology, deep learning, music information retrieval, transcribe into tabs & chords, chordify, music renditions, songsterr, reverbnation, tabulature, bollywood chords, ultimate guitar, yousician, guitar lessons, acoustic guitar, electric guitar, guitar tuner, 911 tabs