Guitar Tabs for Dil De Diya Hai - Masti Tabs

(/) Slide Up  (\) Slide Down  (h) Hammer On  (p) Pull Off  (b) Bend (r) Release (v) Vibrato

Tabs for Song : Dil De Diya Hai
 
dil de diya hai
E|--8-----10-11-8--10-11-13-11-10-8--
B|-----------------------------------
G|-----------------------------------
D|-----------------------------------
A|-----------------------------------
E|-----------------------------------

jaan tumhe denge
E|--------8--10----8--10-11-10-8-----------
B|--11----------11----------------11-9-----
G|-----------------------------------------
D|-----------------------------------------
A|-----------------------------------------
E|-----------------------------------------

daga nahi karenge sanam
E|-----8--8--10-8--------------------
B|--9--------------11--9/11-9--8-----
G|-----------------------------------
D|-----------------------------------
A|-----------------------------------
E|-----------------------------------

rab ki kasam yara  
E|---8/11-11-11-13-15-13-11-10-8--------
B|--------------------------------11----
G|--------------------------------------
D|--------------------------------------
A|--------------------------------------
E|--------------------------------------

rab ki kasam
E|-----10-11-13-11-10-11-10-8-----
B|--11----------------------------
G|--------------------------------
D|--------------------------------
A|--------------------------------
E|--------------------------------

rukh jindagi ne mod liya kesa
E|--8--10-8--8--10-8--8--10-8--8--8--10-8--------------
B|-----------------------------------------11-9--9-----
G|-----------------------------------------------------
D|-----------------------------------------------------
A|-----------------------------------------------------
E|-----------------------------------------------------
 
humne socha nahi tha kabhi esa
E|-----8---8/10-10-10-8-----------------
B|--9--------------------9--8-----8-----
G|-----------------------------10-------
D|--------------------------------------
A|--------------------------------------
E|--------------------------------------

aata nahi yakeen kya se kya ho gya
E|--8--10-8--10-8-----------11-11/13-10-8--8-----
B|-----------------11-9--9-----------------------
G|-----------------------------------------------
D|-----------------------------------------------
A|-----------------------------------------------
E|-----------------------------------------------

ek tahna se kese bewafa ho gaya
E|--8--10-8--10-8-----------11-11/13-10-8--8-----
B|-----------------11-9--9-----------------------
G|-----------------------------------------------
D|-----------------------------------------------
A|-----------------------------------------------
E|-----------------------------------------------


Add more lines by placing cursor below and adding notes
tabs and chords, guitar tabs, music contests, music covers, songsterr, reverbnation, renditions, tabulature, bollywood chords, ultimate guitar, yousician, guitar lessons, torrins, fender, gibson, acoustic guitar, electric guitar, youtube covers, gootar, guitar tuner, A-Z tabs, 911 tabs