Guitar Tabs for Di Na Muli Tabs (verse To Chorus)

(/) Slide Up  (\) Slide Down  (h) Hammer On  (p) Pull Off  (b) Bend (r) Release (v) Vibrato (x) Muted

Tabs for Song : 

Song lyrics hereVerse (x2)
E|-----------------------------------------------------------------------------------------------------------------------
B|--------------------------9-----------------------------------9--------------------------------------------------------
G|------9\11-8--------9--11----11-8--6------9/11-8---------9/11----11-8--6-----------------------------------------------
D|--9--------------9--------------------9--------------9--------------------9---9/11-6-----11-11h12-11-9--11h12-11-9--9--
A|-----------------------------------------------------------------------------------------------------------------------
E|-----------------------------------------------------------------------------------------------------------------------
optional rin pwede mo lagay dunnsa huli ng pangalawang ulit ng verse
E|--------------------------
B|-----------------11/12-11-
G|--------11-11h13----------
D|--11h13-------------------
A|--------------------------
E|--------------------------





Song lyricOptional)
s here Optional pwede mo lagay to sa huli nung hhhunang ulit ng verse 
E|-----------------------------
B|--11h12-11-------------------
G|-----------13-11-------------
D|-----------------13-11h13-11-
A|-----------------------------
E|-----------------------------
pagtapos nung option numbern1 chorus na o pre chrus ewn ko ito na sunod
E|--------------------------------------------
B|--7--9--7--9--7--9--7--9--7--9--7---9/12-12-
G|--------------------------------------------
D|--------------------------------------------
A|--------------------------------------------
E|--------------------------------------------

E|-----------------------------------------------
B|--7--9--7--9--7--9--7--9--7--9--7--------------
G|------------------------------------6h8---6\4--
D|-----------------------------------------------
A|-----------------------------------------------
E|-----------------------------------------------

E|--------------------------------------------
B|--7--9--7--9--7--9--7--9--7--9--7---9/12-12-
G|--------------------------------------------
D|--------------------------------------------
A|--------------------------------------------
E|--------------------------------------------

E|-----------------------------------------
B|--7--9--7--9--7--9--7--9--7--9--7--9--9--
G|-----------------------------------------
D|-----------------------------------------
A|-----------------------------------------
E|-----------------------------------------

E|-----------------------------------------------------
B|--7---7h9--7-----------------------------------------
G|--------------8--6--4--6---6/8--6--8---8h9--8--------
D|-----------------------------------------------9--9--
A|-----------------------------------------------------
E|-----------------------------------------------------

Paste any tab in acousterr's tab maker and we'll play it !!!
Now supports capo and sound effects for vibrato/pull-off/hammer/bends/mutes etc !!! Checkout help section
tabs and chords, guitar tabs, music transcription, music technology, deep learning, music information retrieval, transcribe into tabs & chords, chordify, music renditions, songsterr, reverbnation, tabulature, bollywood chords, ultimate guitar, yousician, guitar lessons, acoustic guitar, electric guitar, guitar tuner, 911 tabs