Guitar Tabs for So Will I Verse To Chorus

(/) Slide Up  (\) Slide Down  (h) Hammer On  (p) Pull Off  (b) Bend (r) Release (v) Vibrato (x) Muted

Tabs for Song : 
BPM : 200

With no point of reference you
E|--------------------------------------------------
B|-----5-----5-----5-----5-----5-----5-----5-----5--
G|--------------------------------------------------
D|--------------------------------------------------
A|--3-----3-----3-----3-----3-----3-----3-----3-----
E|--------------------------------------------------
Spoke to the dark and fleshed out the wonder of light
E|--------------------------------------------------------------------------------------------------------------------------------------------------
B|-----8-----8-----8-----8-----7-----7-----7-----7-----5-----5-----5-----5-----5-----5-----5-----5-----3-----3-----3-----3-----7-----7-----7-----7--
G|--------------------------------------------------------------------------------------------------------------------------------------------------
D|--------------------------------------------------------------------------------------------------------------------------------------------------
A|--7-----7-----7-----7-----5-----5-----5-----5-----3-----3-----3-----3-----3-----3-----3-----3-----2-----2-----2-----2-----5-----5-----5-----5-----
E|--------------------------------------------------------------------------------------------------------------------------------------------------

And as you speak a hundred billion galaxies are born
E|--------------------------------------------------------------------------------------------------
B|-----12----12----12----12----12----12----12----12----12----12----12----12----8-----8-----8-----8--
G|--------------------------------------------------------------------------------------------------
D|--------------------------------------------------------------------------------------------------
A|--10----10----10----10----10----10----10----10----10----10----10----10----7-----7-----7-----7-----
E|--------------------------------------------------------------------------------------------------
In the vapor of your breath the planets formed
E|--------------------------------------------------------------------------------------------------------------------------------------------------
B|-----7-----7-----7-----7-----7-----7-----7-----7-----7-----7-----7-----7-----3-----3-----3-----3-----5-----5-----5-----5-----5-----5-----5-----5--
G|--------------------------------------------------------------------------------------------------------------------------------------------------
D|--------------------------------------------------------------------------------------------------------------------------------------------------
A|--5-----5-----5-----5-----5-----5-----5-----5-----5-----5-----5-----5-----2-----2-----2-----2-----3-----3-----3-----3-----3-----3-----3-----3-----
E|--------------------------------------------------------------------------------------------------------------------------------------------------
If the stars were made to worship so will I
E|--------------------------------------------------------------------------------------------------------------------------
B|-----8-----8-----8-----8-----7-----7-----7-----7-----12----12----12----12----12----12----12----12----12----12----12----12-
G|--------------------------------------------------------------------------------------------------------------------------
D|--------------------------------------------------------------------------------------------------------------------------
A|--7-----7-----7-----7-----5-----5-----5-----5-----10----10----10----10----10----10----10----10----10----10----10----10----
E|--------------------------------------------------------------------------------------------------------------------------
tabs and chords, guitar tabs, music transcription, music technology, deep learning, music information retrieval, transcribe into tabs & chords, chordify, music renditions, songsterr, reverbnation, tabulature, bollywood chords, ultimate guitar, yousician, guitar lessons, acoustic guitar, electric guitar, guitar tuner, 911 tabs