Guitar Tabs for Di Na Muli - Guitar Solo

(/) Slide Up  (\) Slide Down  (h) Hammer On  (p) Pull Off  (b) Bend (r) Release (v) Vibrato (x) Muted

Tabs for Song :Di Na Muli - Guitar Solo
BPM : 110
00

Song lyrics here

E|-----------------------------------------
B|--------------------------16-16/14-12----
G|--------------16-------15-------------13-
D|--16-14-13-16----16/17-------------------
A|-----------------------------------------
E|-----------------------------------------

E|-----------------------------------------
B|--14/16-16/14-12----14/16-16\14-12-------
G|-----------------------------------------
D|-----------------15----------------14-13-
A|-----------------------------------------
E|-----------------------------------------

E|-----------------------------------------
B|-----------------------16-19b21----------
G|--------13-16-------15----------18b20b18-
D|--14-16-------16/17----------------------
A|-----------------------------------------
E|-----------------------------------------

E|-----------------------------------
B|--------16h17-16----16h17-16-------
G|--16-16----------16----------16-16-
D|-----------------------------------
A|-----------------------------------
E|-----------------------------------












Song lyrics here
E|--
B|--
G|--
D|--
A|--
E|--

Paste any tab in acousterr's tab maker and we'll play it !!!
Now supports capo and sound effects for vibrato/pull-off/hammer/bends/mutes etc !!! Checkout help section
tabs and chords, guitar tabs, music transcription, music technology, deep learning, music information retrieval, transcribe into tabs & chords, chordify, music renditions, songsterr, reverbnation, tabulature, bollywood chords, ultimate guitar, yousician, guitar lessons, acoustic guitar, electric guitar, guitar tuner, 911 tabs