Guitar Tabs for Dheere Dheere Se - Honey Singh Tabs

(/) Slide Up  (\) Slide Down  (h) Hammer On  (p) Pull Off  (b) Bend (r) Release (v) Vibrato

Dheere dheere se - Honey Singh tabs

Har pal meriyaan yadaan
E|--0--0--0--------------
B|-----------1--1--3-----
G|-----------------------
D|-----------------------
A|-----------------------
E|-----------------------

Yadaan vich ae tun
E|--------------------
B|--0--1--0-----------
G|-----------2--2-----
D|--------------------
A|--------------------
E|--------------------

Dil di gal main dassa
E|--0--0--0--------------
B|-----------1--1--3-----
G|-----------------------
D|-----------------------
A|-----------------------
E|-----------------------

Te dassa fir kinnu (x2)
E|--------------------
B|--0--1--0-----------
G|-----------2--2-----
D|--------------------
A|--------------------
E|--------------------


Teri meri, meri teri ik jind’di
E|--0--0--0--------------
B|-----------1--1--3--3--
G|-----------------------
D|-----------------------
A|-----------------------
E|-----------------------


Ik jind’di what to do
E|-----------------------------
B|--0--1--0--1--1--0-----------
G|--------------------2--2-----
D|-----------------------------
A|-----------------------------
E|-----------------------------

Jhoomu main naachu main gaaun ke likhun
E|--0--0--0--0-----------------
B|--------------1--1--3--3--0--
G|-----------------------------
D|-----------------------------
A|-----------------------------
E|-----------------------------

Tere liye main kya karun
E|--------------------------
B|--0--0--1--1--0-----------
G|-----------------2--2-----
D|--------------------------
A|--------------------------
E|--------------------------


Dheere dheere se meri zindagi mein aana
E|-----------------------------------------------------
B|--------1--0-----------1--0-----------0--0-----------
G|--0--2--------2--2--2--------2--2--2--------2--0-----
D|-----------------------------------------------------
A|-----------------------------------------------------
E|-----------------------------------------------------

Dheere dheere se dil ko churana 
E|--------------------------------------------
B|--------1--0-----------1--0-----0-----------
G|--0--2--------2--2--2--------2-----2--2-----
D|--------------------------------------------
A|--------------------------------------------
E|--------------------------------------------


Tumse pyaar hume hai kitna jaane jaana
E|--------------------------------------------------
B|--------1--0--------1--0-----------0--0-----------
G|--0--2--------2--2--------2--2--2--------2--0-----
D|--------------------------------------------------
A|--------------------------------------------------
E|--------------------------------------------------

Tumse mil kar tumko hai batana
E|-----------------------------------------
B|--------1--0--------1--0-----0-----------
G|--0--2--------2--2--------2-----2--2-----
D|-----------------------------------------
A|-----------------------------------------
E|-----------------------------------------
tabs and chords, guitar tabs, music transcription, music technology, deep learning, music information retrieval, transcribe into tabs & chords, chordify, music renditions, songsterr, reverbnation, tabulature, bollywood chords, ultimate guitar, yousician, guitar lessons, acoustic guitar, electric guitar, guitar tuner, 911 tabs