Guitar Tabs for Aaj Se Teri - Arijit Singh Tabs

(/) Slide Up  (\) Slide Down  (h) Hammer On  (p) Pull Off  (b) Bend (r) Release (v) Vibrato

Tabs for Song : Aaj Se Teri

Aaj se teri saari galiyan meri ho gayi
E|-----------------------------------------------------------
B|-----10-10-------------------------------------------------
G|--9--------12-11-12----11-9--9--11----9--11-9--------9--9--
D|-----------------------------------------------12-12-------
A|-----------------------------------------------------------
E|-----------------------------------------------------------

Aaj se mera ghar tera ho gaya
E|-----------------------------------------
B|-----10-10-------------------------------
G|--9--------12-11-12-11-9--9--11-9-----9--
D|-----------------------------------12----
A|-----------------------------------------
E|-----------------------------------------

Aaj se meri saari khushiyan teri ho gayi
Aaj se tera gham mera ho gaya (Same As Previous One)

O tere kaandhe ka jo til hai
E|--------------------------------------
B|--12-12-12-12-10-12-12-10-12-12-10----
G|-----------------------------------12-
D|--------------------------------------
A|--------------------------------------
E|--------------------------------------

O tere seene mein jo dil hai
E|--------------------------------------
B|--10-10-10-10----10-10----10-10-------
G|--------------12-------12-------12-9--
D|--------------------------------------
A|--------------------------------------
E|--------------------------------------

O teri bijli ka jo bill hai
E|--------------------------------------
B|--12-12-12-12-10-12-12-10-12-12-10----
G|-----------------------------------12-
D|--------------------------------------
A|--------------------------------------
E|--------------------------------------

Aaj se mera ho gaya
E|-----------------------------
B|--10-10-10-10-12-10----------
G|--------------------12-11-9--
D|-----------------------------
A|-----------------------------
E|-----------------------------

O mere khwabon ka ambar
E|--------------------------------------
B|--12-12-12-12-10-12-12-10-12-12-10----
G|-----------------------------------12-
D|--------------------------------------
A|--------------------------------------
E|--------------------------------------

O meri khushiyon ka samandar
E|--------------------------------------
B|--10-10-10-10----10-10----10-10-------
G|--------------12-------12-------12-9--
D|--------------------------------------
A|--------------------------------------
E|--------------------------------------

O mere pin code ka number
E|-----------------------10-------------
B|--12-12-12-12-10-12-12----12-12-10----
G|-----------------------------------12-
D|--------------------------------------
A|--------------------------------------
E|--------------------------------------

Aaj se tera ho gaya
E|-----------------------------
B|--10-10-10-10-12-10----------
G|--------------------12-11-9--
D|-----------------------------
A|-----------------------------
E|-----------------------------

tabs and chords, guitar tabs, music contests, music covers, songsterr, reverbnation, renditions, tabulature, bollywood chords, ultimate guitar, yousician, guitar lessons, torrins, fender, gibson, acoustic guitar, electric guitar, youtube covers, gootar, guitar tuner, A-Z tabs, 911 tabs