Guitar Tabs for Dheere Dheere Se

(/) Slide Up  (\) Slide Down  (h) Hammer On  (p) Pull Off  (b) Bend (r) Release (v) Vibrato (x) Muted

Tabs for Song : 

Saxophone intro
E|--------------------------------------------------------------------------------
B|---4h5---5/7-----5--4---2h4-----2---------2h4-----5-----4--2--------2--4--5--4--
G|-----------------------------------------------------------------4--------------
D|--------------------------------------------------------------------------------
A|--------------------------------------------------------------------------------
E|--------------------------------------------------------------------------------

Guitar intro 1
E|-----------------------------------------------------11-9--7-----
B|------9/12----11h12p11-9--9-----7-----7------7h9-----------------
G|-----------------------------------------------------------------
D|-----------------------------------------------------------------
A|-----------------------------------------------------------------
E|-----------------------------------------------------------------

Guitar intro 2
E|-----------9------9/11-11-11-------------------------------------------
B|------9/12----------------------11h12p11-9--9------5/7-----7------7\5--
G|-----------------------------------------------------------------------
D|-----------------------------------------------------------------------
A|-----------------------------------------------------------------------
E|-----------------------------------------------------------------------

filler
E|--------------4-----4--6--7--6--7--9--
B|--5--7--5--7-----7--------------------
G|--------------------------------------
D|--------------------------------------
A|--------------------------------------
E|--------------------------------------

Intro 3 
E|--------------------------------------------------------------
B|------9/12----11h12p11-9--9-----7-----7------7h9-----12-11-9--
G|--------------------------------------------------------------
D|--------------------------------------------------------------
A|--------------------------------------------------------------
E|--------------------------------------------------------------

Dhire Dhire se meri zindegi me aana
E|-----------------------------------------------------------------------
B|-----7--9------9/12-11-9-----9--9-----12-11-9-----9-----11h12p11p9-----
G|--------------------------------------------------------------------11-
D|-----------------------------------------------------------------------
A|-----------------------------------------------------------------------
E|-----------------------------------------------------------------------

Dhire dhire se mere dil ko churana
E|-----------------------------------------------------------
B|-----7--9------9/12-11-9-----9--9--12----11----9--9-----9--
G|-----------------------------------------------------------
D|-----------------------------------------------------------
A|-----------------------------------------------------------
E|-----------------------------------------------------------

tumse pyaar hume hai kitna jane jana
E|-----------------------------------------------------------------------
B|-----7--9------9/12-11-9-----9--9-----12-11-9-----9-----11h12p11p9-----
G|--------------------------------------------------------------------11-
D|-----------------------------------------------------------------------
A|-----------------------------------------------------------------------
E|-----------------------------------------------------------------------

tumse milkar tumko hai batana
E|-----------------------------------------------------------
B|-----7--9------9/12-11-9-----9--9--12----11----9--9-----9--
G|-----------------------------------------------------------
D|-----------------------------------------------------------
A|-----------------------------------------------------------
E|-----------------------------------------------------------

o dhire dhire se (female part)
E|--------------------------------------------------------------------------
B|--7------7--9------9/12-11-9-----9--9-----12-11-9-----9-----11h12p11p9----
G|-----------------------------------------------------------------------11-
D|--------------------------------------------------------------------------
A|--------------------------------------------------------------------------
E|--------------------------------------------------------------------------

Dhire dhire se dil ko churana
E|-----------------------------------------------------------
B|-----7--9------9/12-11-9-----9--9--12----11----9--9-----9--
G|-----------------------------------------------------------
D|-----------------------------------------------------------
A|-----------------------------------------------------------
E|-----------------------------------------------------------

Tumse pyaar hume hai kitna jaane jana
E|-----------------------------------------------------------9--------
B|-----7--9------9/12-11-9-----9--9-----12-11-9-----9-----11----------
G|-----------------------------------------------------------------11-
D|--------------------------------------------------------------------
A|--------------------------------------------------------------------
E|--------------------------------------------------------------------

tumse milkar tumko hai batana
E|-----------------------------------------------------------
B|-----7--9------9/12-11-9-----9--9--12----11----9--9-----9--
G|-----------------------------------------------------------
D|-----------------------------------------------------------
A|-----------------------------------------------------------
E|-----------------------------------------------------------

Jab se tujhe dekh dil ko kahin aram nahi
E|--------------------------------------------------------------------------------------
B|------2/4--4-----------5--4-----4--------------------5--4-----------------------------
G|--------------4-----6--------------------4-----6--------------6--4--6-----4-----3--3--
D|--------------------------------------------------------------------------------------
A|--------------------------------------------------------------------------------------
E|--------------------------------------------------------------------------------------

filler
E|-----------------------------------------
B|-----------------------------------------
G|-----3-----4--6--4--3-----3-----3--4--3--
D|-----------------------6-----6-----------
A|-----------------------------------------
E|-----------------------------------------

mere honton pe ek tere siba koi naam nahi
E|--------------------------------------------------------------------------------
B|--------------------------------------------------------------------------------
G|-----6--4--3-----4--6--6-----6--4--3-----4--6--6-----4--3-----4-----3-----------
D|--------------------------------------------------------------------------6--6--
A|--------------------------------------------------------------------------------
E|--------------------------------------------------------------------------------

filler lead
E|--------------------------------------------------
B|--------------------------------------------------
G|---------------------3/4--3-----------------------
D|------4/6-----6--------------4------4/6------6\1--
A|--------------------------------------------------
E|--------------------------------------------------

Apna bhi haal tumhare jaisa hai saajan
E|------9/11-11----------12-11----11-------------12-11-------------------------
B|--------------12----14-------------12-12----14----------14-12-14----12----11-
G|-----------------------------------------------------------------------------
D|-----------------------------------------------------------------------------
A|-----------------------------------------------------------------------------
E|-----------------------------------------------------------------------------

filler
E|-----------------------------------------
B|-----11-12----14-12-11----11----11-12-11-
G|-----------------------13----13----------
D|-----------------------------------------
A|-----------------------------------------
E|-----------------------------------------

bas yaad tujhe karte hai or koi kaam nahi
E|------7/9-----------------9--9-----9-----------------9--9--------------------------------
B|-----------12----11----12-------------12----11----12----------12-11-12----11-------9--9--
G|-----------------------------------------------------------------------------------------
D|-----------------------------------------------------------------------------------------
A|-----------------------------------------------------------------------------------------
E|-----------------------------------------------------------------------------------------












Now supports capo and sound effects for vibrato/pull-off/hammer/bends/mutes etc !!! Checkout help section
tabs and chords, guitar tabs, music contests, music covers, songsterr, reverbnation, renditions, tabulature, bollywood chords, ultimate guitar, yousician, guitar lessons, torrins, fender, gibson, acoustic guitar, electric guitar, youtube covers, gootar, guitar tuner, A-Z tabs, 911 tabs