Guitar Tabs for Dekhte Dekhte

Rajj ke rulaaya
Rajj ke hansaya 
E|--5--8--7--5---5\3--5-----5--8--7--5---5\3--5-----
B|--------------------------------------------------
G|--------------------------------------------------
D|--------------------------------------------------
A|--------------------------------------------------
E|--------------------------------------------------

Maine dil kho ke ishq kamaya
E|-----------7---7p5--5--------------7---7p5--5-----
B|--5--6--8-----------------5--6--8-----------------
G|--------------------------------------------------
D|--------------------------------------------------
A|--------------------------------------------------
E|--------------------------------------------------

Maanga jo usne ek sitara
E|--5--8--7--5---5\3--5-----5--8--7--5---5\3--5-----
B|--------------------------------------------------
G|--------------------------------------------------
D|--------------------------------------------------
A|--------------------------------------------------
E|--------------------------------------------------

Humne zameen pe chaand bulaya
E|-----------7---7p5--5--------------7---7p5--5-----
B|--5--6--8-----------------5--6--8-----------------
G|--------------------------------------------------
D|--------------------------------------------------
A|--------------------------------------------------
E|--------------------------------------------------

Jo aankhon se.. haaye
E|--10-10-10h12-12-12----12-10-10-------------
B|-----------------------------------13-------
G|--------------------------------------------
D|--------------------------------------------
A|--------------------------------------------
E|--------------------------------------------

Wo jo aankhon se ik pal na ojhal huve
E|--10-10-10h12-12-12-12-12p10-10-10-12/14-12-14----
B|--------------------------------------------------
G|--------------------------------------------------
D|--------------------------------------------------
A|--------------------------------------------------
E|--------------------------------------------------

Wo jo aankhon se ik pal na ojhal huve
E|--10-10-10h12-12-12-12-12p10-10-10-12/14-12-14----
B|--------------------------------------------------
G|--------------------------------------------------
D|--------------------------------------------------
A|--------------------------------------------------
E|--------------------------------------------------

Laapata ho gaye dekhte dekhte
E|--12-14-14/15-15-15-15\12----12p10-10-10\8---8\7--------------
B|--------------------------------------------------8---8/10----
G|--------------------------------------------------------------
D|--------------------------------------------------------------
A|--------------------------------------------------------------
E|--------------------------------------------------------------

Sochta hoon…
Sochta hoon ke woh kitne masoom thay
E|--------------------------------------------------------------------
B|--8------8h10-10-10----8------8h10-10-10-10-10/12-8--8--10/12-10-12-
G|-----9--------------------9-----------------------------------------
D|--------------------------------------------------------------------
A|--------------------------------------------------------------------
E|--------------------------------------------------------------------

Sochta hoon ke woh kitne masoom thay
E|--------------------------------------------------
B|--8------8h10-10-10-10-10/12-8--8--10/12-10-12----
G|-----9--------------------------------------------
D|--------------------------------------------------
A|--------------------------------------------------
E|--------------------------------------------------

Kya se kya ho gaye dekhte dekhte
E|-----------------------------------------------------------
B|--10-12-12/13-13-13-13/15-15/17-17-17\15-13\12-------------
G|-----------------------------------------------12-12/14----
D|-----------------------------------------------------------
A|-----------------------------------------------------------
E|-----------------------------------------------------------

Sochta hoon ke woh kitne masoom thay
E|--10-10-10h12-12-12-12-12p10-10-10-12/14-12-14----
B|--------------------------------------------------
G|--------------------------------------------------
D|--------------------------------------------------
A|--------------------------------------------------
E|--------------------------------------------------

Kya se kya ho gaye dekhte dekhte
E|--12-14-14/15-15-15-15\12----12p10-10-10\8---8\7--------------
B|--------------------------------------------------8---8/10----
G|--------------------------------------------------------------
D|--------------------------------------------------------------
A|--------------------------------------------------------------
E|--------------------------------------------------------------
tabs and chords, guitar tabs, music transcription, music technology, deep learning, music information retrieval, transcribe into tabs & chords, chordify, music renditions, songsterr, reverbnation, tabulature, bollywood chords, ultimate guitar, yousician, guitar lessons, acoustic guitar, electric guitar, guitar tuner, 911 tabs