Guitar Tabs for Crystal

(/) Slide Up  (\) Slide Down  (h) Hammer On  (p) Pull Off  (b) Bend (r) Release (v) Vibrato (x) Muted

Tabs & Chords
BPM : 117.0
Check Track 2 for Chord Positions 

          D#                                                                                     
E|-----------------------1-----1--3-----6-----------------------------1--3-----------------------
B|-----4--3-----4--4--------------------------4-----4--3-----4-----------------1-----4--3-----4--
G|--------------------------3-----------------------------------3--------------------------------
D|--1--------------------------------------------------------------------------------------------
A|-----------------------------------------------------------------------------------------------
E|-----------------------------------------------------------------------------------------------

                                                    G#             D#                            
E|-----3--------------------------------------------3--4--2--3--1--------------3--1--------------
B|-----------4--------4--3-----4--4--------------------------------4--3--4-----------4--3--------
G|--------------3-----------------------3-----3-----------------------------------------------3--
D|-----------------------------------------------------------------------------------------------
A|-----------------------------------------------------------------------------------------------
E|-----------------------------------------------------------------------------------------------

                   Cm    A#          D#                                                          
E|-----------------------------------------3--4--4--1--3--1-----------------2--2--1-----------2--
B|-----------3-----------------------------------------------4--3--4-----0-----------4--3--------
G|-----1-----------3-----3-----------------------------------------------------------------------
D|-----------------------------------------------------------------------------------------------
A|--------------------------1--1--1--------------------------------------------------------------
E|-----------------------------------4-----------------------------------------------------------



Guitar Tabs for Crystal






          D#                                                                                     
E|--------6--------------------------------------------------------------------------------------
B|--------8--------------------------------------------------------------------------------------
G|--------8--------------------------------------------------------------------------------------
D|--------8--------------------------------------------------------------------------------------
A|--------6--------------------------------------------------------------------------------------
E|-----------------------------------------------------------------------------------------------

                                                    G#             D#                            
E|--------------------------------------------------4--------------6-----------------------------
B|--------------------------------------------------4--------------8-----------------------------
G|--------------------------------------------------5--------------8-----------------------------
D|--------------------------------------------------6--------------8-----------------------------
A|--------------------------------------------------6--------------6-----------------------------
E|--------------------------------------------------4--------------------------------------------

                   Cm    A#          D#                                                          
E|-----------------3-----1-----------6-----------------------------------------------------------
B|-----------------4-----3-----------8-----------------------------------------------------------
G|-----------------5-----3-----------8-----------------------------------------------------------
D|-----------------5-----3-----------8-----------------------------------------------------------
A|-----------------3-----1-----------6-----------------------------------------------------------
E|-----------------------------------------------------------------------------------------------

tabs and chords, guitar tabs, music transcription, music technology, deep learning, music information retrieval, transcribe into tabs & chords, chordify, music renditions, songsterr, reverbnation, tabulature, bollywood chords, ultimate guitar, yousician, guitar lessons, acoustic guitar, electric guitar, guitar tuner, 911 tabs