Guitar Tabs for Chura Ke Dil Mera - Akshay Kumar Tabs

(/) Slide Up  (\) Slide Down  (h) Hammer On  (p) Pull Off  (b) Bend (r) Release (v) Vibrato (x) Muted

Tabs for Song : Chura Ke Dil Mera

churaake dil mera
E|--------------------------------------
B|--12-9--------------------------------
G|--------8--8--6---6/8--8--11-8--6-----
D|-----------------------------------9--
A|--------------------------------------
E|--------------------------------------

goriya chali
E|-----------------------------------
B|-----------------------------------
G|-----6--8-----6--------------9--6--
D|--9--------9-----9--6--9--6--------
A|-----------------------------------
E|-----------------------------------

churaake dil mera
E|--------------------------------------
B|--12-9--------------------------------
G|--------8--8--6---6/8--8--11-8--6-----
D|-----------------------------------9--
A|--------------------------------------
E|--------------------------------------

goriya chali
E|-----------------------------------
B|-----------------------------------
G|-----6--8-----6--------------9--6--
D|--9--------9-----9--6--9--6--------
A|-----------------------------------
E|-----------------------------------

Udaake nindiyaan
E|--------------------------------------
B|--12-9--------------------------------
G|--------8--8--6---6/8--11-8--6--8-----
D|-----------------------------------9--
A|--------------------------------------
E|--------------------------------------

kahaan tu chali
E|-----------------------------------
B|-----------------------------------
G|-----6--8-----6--------------9--6--
D|--9--------9-----9--6--9--6--------
A|-----------------------------------
E|-----------------------------------

paagal hua, deewaana hua 
E|--6--6--9--6-----------6-----6--6--6--9--6-----------6-----
B|--------------7--9--9-----9-----------------7--9--9-----9--
G|-----------------------------------------------------------
D|-----------------------------------------------------------
A|-----------------------------------------------------------
E|-----------------------------------------------------------

Kaisi yeh dil ki lagi
E|--------------------------------------
B|-----------------7--9-----9-----9-----
G|--8--8--8--8--9--------8-----8-----8--
D|--------------------------------------
A|--------------------------------------
E|--------------------------------------

Ho, churaake dil tera
E|-----------------------------------------
B|-12--12-9--------------------------------
G|-----------8--8--6---6/8--8--11-8--6-----
D|--------------------------------------9--
A|-----------------------------------------
E|-----------------------------------------

chali main chali
E|-----------------------------------
B|-----------------------------------
G|-----6--8-----6--------------9--6--
D|--9--------9-----9--6--9--6--------
A|-----------------------------------
E|-----------------------------------
tabs and chords, guitar tabs, music contests, music covers, songsterr, reverbnation, renditions, tabulature, bollywood chords, ultimate guitar, yousician, guitar lessons, torrins, fender, gibson, acoustic guitar, electric guitar, youtube covers, gootar, guitar tuner, A-Z tabs, 911 tabs