Guitar Tabs for Chhupana Bhi Nahin Aata - Baazigar

(/) Slide Up  (\) Slide Down  (h) Hammer On  (p) Pull Off  (b) Bend (r) Release (v) Vibrato (x) Muted

Tabs for Song : 

intro part
E|--5---5h-6p-5\-4h5--------------------------------------------
B|--6-----------------------------5---6/8---8/10----------------
G|--7---------------------5s7--------------------------7--7-----
D|--------------------------------------------------------------
A|--------------------------------------------------------------
E|--------------------------------------------------------------

E|--------13-12-10----------------------------------------------
B|--10----------------13-11-10----------------------------------
G|--------------------------------12-10-9--10-10/12-------------
D|-----------------------------------------------------11-11----
A|--------------------------------------------------------------
E|--------------------------------------------------------------

E|-----------------------------------------
B|--------------------5---5/10-9--8--8-----
G|-----------------6-----------------------
D|--------------7--------------------------
A|--------4--7-----------------------------
E|---4/5-----------------------------------

E|-----------------------------------------
B|--------------------5---5/8--7--6--6-----
G|-----------------6-----------------------
D|--------------7--------------------------
A|--------4--7-----------------------------
E|---4/5-----------------------------------

E|------------------------------8/10-10-10-10----
B|------------5h-6p5-----------------------------
G|--7--7--7--------------7-----------------------
D|-----------------------------------------------
A|-----------------------------------------------
E|-----------------------------------------------

E|--8--6--5--------------------------------------------------------------
B|-----------8--6--5-----------------------------------------------------
G|-----------------------7--5--------------------------------------------
D|--------------------------------8--7--5--------------------------------
A|--------------------------------------------8--7---5/-7\5--------------
E|--------------------------------------------------------------5--5-----

E|--5------5h-6p5-----3------3h-5p3-----1------1h-3p1-----------------------------
B|--6--------------------5-----------------3------------------3/5-----------------
G|--7--------------------5-----------------3--------------------------------6-----
D|-----------------------5-----------------3--------------------------7-----------
A|--------------------------------------------------------------------------------
E|--------------------------------------------------------------------------------

E|--8--------------------6-----------------5--------------------------------
B|--8------8h10p8-----6------6h-8p6-----5------5h-6p5-----------------------
G|--9--------------------7-----------------7--------------7--6--7-----------
D|--10-------------------8-----------------7--------------------------7-----
A|--------------------------------------------------------------------------
E|--------------------------------------------------------------------------

E|--------------------------5--5-----------------------------------------------------------
B|-----------5--5--------------------8--8--5--5--------------------5--5--------------------
G|--7--7-----------7--7-----------------------------5--5--7--7--------------7--7--7--7-----
D|-----------------------------------------------------------------------------------------
A|-----------------------------------------------------------------------------------------
E|-----------------------------------------------------------------------------------------

X2 times

chupana bhi nahi aata
E|-----------------------------5--------------------------
B|---------------------5h6-----------8---------5\3--------
G|-----------7-----7-----------------------------------5--
D|--7--7--------------------------------------------------
A|--------------------------------------------------------
E|--------------------------------------------------------

jatana bhi nahi aata
E|-----------------------5--------------------------
B|------------------5h6------8/10\5---5/-6\-5\3-----
G|--------7-----7-----------------------------------
D|--7--7--------------------------------------------
A|--------------------------------------------------
E|--------------------------------------------------

hume tumse mohabhat hai
E|--8--8---8p7--8-----10-10/12\8--8--7--8-----
B|--------------------------------------------
G|--------------------------------------------
D|--------------------------------------------
A|--------------------------------------------
E|--------------------------------------------

batana bhi nahi aata
E|-----------------------------------------------------
B|--8---8/10-10\6--6---6/8---8\5--5---5/6---5\3--3-----
G|-----------------------------------------------------
D|-----------------------------------------------------
A|-----------------------------------------------------
E|-----------------------------------------------------


tabs and chords, guitar tabs, music contests, music covers, songsterr, reverbnation, renditions, tabulature, bollywood chords, ultimate guitar, yousician, guitar lessons, torrins, fender, gibson, acoustic guitar, electric guitar, youtube covers, gootar, guitar tuner, A-Z tabs, 911 tabs