Guitar Tabs for Chala Jaata Hoon - Kishore Kumar Tabs

(/) Slide Up  (\) Slide Down  (h) Hammer On  (p) Pull Off  (b) Bend (r) Release (v) Vibrato

Tabs for Song : Chala Jaataa Hoon Tabs

chala jaataa hun, kisi ki dhun me
E|-----------------------------------
B|-----------1--1--1-----------------
G|--2--2--2-----------2-----3--3-----
D|-----------------------3-----------
A|-----------------------------------
E|-----------------------------------

dhadakate dil ke, taraane liye
E|-----------------------------------
B|-----------1--1--------------------
G|--2--2--2--------2-----0-----------
D|--------------------3-----2--3-----
A|-----------------------------------
E|-----------------------------------

milan ki masti, bhari aankho mein
E|--1--1--0--------0--0--------------
B|-----------3--3--------3--1--1-----
G|-----------------------------------
D|-----------------------------------
A|-----------------------------------
E|-----------------------------------

hazaro sapne, suhane liye hoo
E|--1--1--0-----------0--0-----------
B|-----------3--3--3--------3--1-----
G|-----------------------------------
D|-----------------------------------
A|-----------------------------------
E|-----------------------------------

ye masti ke, nazaare hai
E|--------------------------------------
B|--1--1--1--1--5-----1--1--1--1--5-----
G|--------------------------------------
D|--------------------------------------
A|--------------------------------------
E|--------------------------------------

to aise mein
E|--------------5--3-----
B|--1--1--1--1-----------
G|-----------------------
D|-----------------------
A|-----------------------
E|-----------------------

sambhalanaa kesa meri kasam
E|--0--0--0--0--1--1-----------------
B|--------------------1--3--1--1-----
G|-----------------------------------
D|-----------------------------------
A|-----------------------------------
E|-----------------------------------

tu lehrati, dagariya ho
E|--------------------------------------
B|--1--1--1--1--5-----1--1--1--1--5-----
G|--------------------------------------
D|--------------------------------------
A|--------------------------------------
E|--------------------------------------

to fir kyun na 
E|--------------5--3-----
B|--1--1--1--1-----------
G|-----------------------
D|-----------------------
A|-----------------------
E|-----------------------

chalun mein behka behka re
E|--0--0--0--1--1--0--0--1-----
B|-----------------------------
G|-----------------------------
D|-----------------------------
A|-----------------------------
E|-----------------------------

Add more lines by placing cursor below and adding notes
tabs and chords, guitar tabs, music contests, music covers, songsterr, reverbnation, renditions, tabulature, bollywood chords, ultimate guitar, yousician, guitar lessons, torrins, fender, gibson, acoustic guitar, electric guitar, youtube covers, gootar, guitar tuner, A-Z tabs, 911 tabs