Guitar Tabs for Pukarta Chala Hoon Main

Tabs for pukarta chala hoon main
See attached video for video lesson 

E|-----------------------------------------------------------------------------------------
B|-----------------------------------------------------------------------------------------
G|-----------------------------------------------5--5---5/8--8--7--7-----7--5--5-----------
D|--5--5-----------------5--5--3-----3--3--6--6-----------------------8-----------6--8--5--
A|--------6--3--3--6--6-----------5--------------------------------------------------------
E|-----------------------------------------------------------------------------------------

E|-----------------------------
B|-----------------------------
G|-----8--7---7/8-----8--8--8--
D|--5--------------------------
A|-----------------------------
E|-----------------------------

E|-----------------------------
B|-----------------------------
G|--5--7--8--7-----------------
D|--------------8-----8--8--8--
A|-----------------------------
E|-----------------------------


E|--------------------------
B|--------------------------
G|-----5--7-----------------
D|--8--------6-----6--6--6--
A|--------------------------
E|--------------------------


E|--------------------------
B|--------------------------
G|--------------------------
D|--5--6--8--5-----5--5--5--
A|--------------------------
E|--------------------------


E|--------------------------------------------------
B|--------------------------------------------------
G|-----5--3-----------------------------------------
D|--5--------6--5--6--5--6--5--------5--4--5--4--5--
A|-----------------------------3--6-----------------
E|--------------------------------------------------

E|--------------------------------------------------
B|--------------------------------------------------
G|-----5--3-----------------------------------------
D|--5--------6--5--6--5--6--5--------5--4--5--4--5--
A|-----------------------------3--6-----------------
E|--------------------------------------------------


E|--------------------------------------
B|--------------------------------------
G|--------------------------------------
D|--5--3-----3--5--3--------3-----------
A|--------5-----------5--6-----6--5--3--
E|--------------------------------------
tabs and chords, guitar tabs, music transcription, music technology, deep learning, music information retrieval, transcribe into tabs & chords, chordify, music renditions, songsterr, reverbnation, tabulature, bollywood chords, ultimate guitar, yousician, guitar lessons, acoustic guitar, electric guitar, guitar tuner, 911 tabs