Guitar Tabs for Carrying You

(/) Slide Up  (\) Slide Down  (h) Hammer On  (p) Pull Off  (b) Bend (r) Release (v) Vibrato (x) Muted

Tabs for Song : 

Song lyrics here
E|--0--2--3--------2--3-----7-----2-----------------------0-----------0-----3-----
B|--------------0--------0--------------3-----------0--------------3--------------
G|-----------0-----------------0-----4-----4-----------0--------0--------0-----0--
D|--------------------------------0--------------0-----------2--------------------
A|--------------------------------------------2-----------3-----------------------
E|--------0-----------------------------------------------------------------------

E|--------------------------------------------3-----------------------3-----
B|--3-----------------0-----1--------0--1--------1--0-----------0-----------
G|--------2-----0-----------------2--------------------------2-----------0--
D|-----0-----0-----0-----0-----2-----------2--------------2--------2--------
A|--2-----------------------0--------------------------2--------------------
E|--------------------3-----------------------------0-----------------------

E|--2-----------------2-----2-----------------0--2--3--------2--3-----7-----
B|-----------2--2--------5--------4-----------------------0--------0--------
G|-----------------3-----------------2-----------------0-----------------0--
D|--------2-----2--------------4--------------------------------------------
A|-----4--------------------2-----------2--0--------------------------------
E|--2-----------------------------------------3--2--0-----------------------

E|--2-----------------------0-----------0-----3-----------------------------
B|--------3-----------0--------------3--------------3-----------------0-----
G|-----4-----4-----------0--------0--------0-----0--------2-----0-----------
D|--2--------------0-----------2-----------------------0-----0-----0-----0--
A|--------------2-----------3-----------------------2-----------------------
E|--------------------------------------------------------------------3-----

E|--------3--2--------3-----5-----7--------------3--2--0--0--2-----------0-----------12-
B|--1--------------------------0-----8-----8-----------------------4-----------0--------
G|--------------2--------2--------------0-----0-----------------------2-----0-----0-----
D|-----------------2--------------------------------------------4-----------------------
A|-----2-----------------------------------------------------2--------------------------
E|--0-----------------------0--------------------0-----------------------0--------------

E|--3--5--7-----------5--7--10-5--------------------------------------7-----
B|-----------0-----0-----------------7-----7--------8--------7--8--------8--
G|--------0-----7-----------------7-----7-----7-----------9-----------------
D|-----------------------------0-----------------0-----9-----------9--------
A|--------------------------------------------------7-----------7-----------
E|--------------------------------------------------------------------------

E|--7--------------------0--2--3-----2--3--5-----3-----------------------
B|--------7-----------0-----------0-----------0-----------3--------------
G|-----7-----7-----------------------------------------0--------------0--
D|--0--------------0-----------------2--------------0--------------0-----
A|-----------------------3-----------------------2--------------2--------
E|--------------7--------------------------------------------3-----------

E|--3-----7-----5-----------0-----------12-
B|-----------0-----0--3--7--------0--------
G|-----0-----------------------0-----0-----
D|--------------4--------------------------
A|--0--------------------------------------
E|--------------------------0--------------

Song lyrics here
E|--0--2--3--------2--3-----7-----2-----------------------0-----------0-----3-----
B|--------------0--------0--------------3-----------0--------------3--------------
G|-----------0-----------------0-----4-----4-----------0--------0--------0-----0--
D|--------------------------------2--------------0-----------2--------------------
A|--------------------------------------------2-----------3-----------------------
E|--------3-----------------------------------------------------------------------

E|--------------------0-----------3--2--------3-----5-----7--------------3--2--0--0--2-----------0-----------12-------------12-
B|--3-----------------------1--------------------------0-----8-----8-----------------------4-----------12-------12----12-------
G|--------2-----0-----------------------2--------2--------------0-----0-----------------------2-----12----12-------12----------
D|-----0-----0-----0-----0-----2-----------2--------------------------------------------4--------------------------------------
A|--2-----------------------0--------------------------------------------3-----------2-----------------------------------7-----
E|--------------------3-----------------------------0--------------------------------------------0-----------------------------

Now supports capo and sound effects for vibrato/pull-off/hammer/bends/mutes etc !!! Checkout help section
tabs and chords, guitar tabs, music contests, music covers, songsterr, reverbnation, renditions, tabulature, bollywood chords, ultimate guitar, yousician, guitar lessons, torrins, fender, gibson, acoustic guitar, electric guitar, youtube covers, gootar, guitar tuner, A-Z tabs, 911 tabs