Angus Stuff - Guitar Tabs

song: castle on a hill


E|-----------------------------------------------
B|-----------------------------------------------
G|-----------------------------------------------
D|-----------------------------------------------
A|--5--5-----------------5--5--5--0--0-----4--5--
E|--------2--3--3-----3--------------------------




c section get off:

E|--------------------------------------------------------------------------------------------------------------
B|-----1-----5--3-----3--3--1--3--1-----------1-----5--3-----3--3--1--3--5-----3--1-----1-----------------------
G|--2-----2-----------------------------2--2-----2-----------------------------------------2-----0--------------
D|--------------------------------------------------------------------------------------------------2-----0-----
A|-----------------------------------------------------------------------------------------------------------3--
E|--------------------------------------------------------------------------------------------------------------



f min pent number 2:


E|--------------------------------4--6--
B|--------------------------4--6--------
G|--------------------3--5--------------
D|--------------3--6--------------------
A|--------3--6--------------------------
E|--4--6--------------------------------
tabs and chords, guitar tabs, music transcription, music technology, deep learning, music information retrieval, transcribe into tabs & chords, chordify, music renditions, songsterr, reverbnation, tabulature, bollywood chords, ultimate guitar, yousician, guitar lessons, acoustic guitar, electric guitar, guitar tuner, 911 tabs