Guitar Tabs for Burger

(/) Slide Up  (\) Slide Down  (h) Hammer On  (p) Pull Off  (b) Bend (r) Release (v) Vibrato (x) Muted

Tabs for Song : 

Song lyrics here
E|--------------------------------------------------------------------------------------------------------
B|--------------------------------------------------------------------------------------------------------
G|-----------------9-----------------------9--------------------------------------------------------------
D|--7-----7--7--7--------7--7-----7--7--7--------7--7-----7--7--7--9-----9--9-----9--9--9---9/11----11-11-
A|--------------------------------------------------------------------------------------------------------
E|--------------------------------------------------------------------------------------------------------

E|--------------------------------------------------------------------------------------------
B|--------------------------------------------------------------------------------------------
G|--------------------------------------------------------------------------------------------
D|-----11-11-11-11/12----12-12----12-12-12-12\11----11-11----11-11-11-11\9-----9--9--------7--
A|-----------------------------------------------------------------------------------11-12----
E|--------------------------------------------------------------------------------------------

Song lyrics here
E|--------------------------------------------------------------------------------------------------------
B|--------------------------------------------------------------------------------------------------------
G|-----------------9-----------------------9--------------------------------------------------------------
D|--7-----7--7--7--------7--7-----7--7--7--------7--7-----7--7--7--9-----9--9-----9--9--9---9/11----11-11-
A|--------------------------------------------------------------------------------------------------------
E|--------------------------------------------------------------------------------------------------------

E|--------------------------------------------------------------------------------------------
B|--------------------------------------------------------------------------------------------
G|--------------------------------------------------------------------------------------------
D|-----11-11-11-11/12----12-12----12-12-12-12\11----11-11----11-11-11-11\9-----9--9--------7--
A|-----------------------------------------------------------------------------------11-12----
E|--------------------------------------------------------------------------------------------


Now supports capo and sound effects for vibrato/pull-off/hammer/bends/mutes etc !!! Checkout help section
tabs and chords, guitar tabs, music transcription, music technology, deep learning, music information retrieval, transcribe into tabs & chords, chordify, music renditions, songsterr, reverbnation, tabulature, bollywood chords, ultimate guitar, yousician, guitar lessons, acoustic guitar, electric guitar, guitar tuner, 911 tabs