Guitar Chords for Power Chords

(/) Slide Up  (\) Slide Down  (h) Hammer On  (p) Pull Off  (b) Bend (r) Release (v) Vibrato (x) Muted

Tabs for Song : 

Song lyrics here
E|-----x--x--------x--x--------x--x-----------------
B|-----x--x--------x--x--------x--x-----------------
G|-----x--x--------x--x--------x--x--5--5--5--5--5--
D|-----x--x--5-----x--x--5-----x--x--5--5--5--5--5--
A|-----x--x--5-----x--x--5-----x--x--3--3--3--3--3--
E|-----x--x--3-----x--x--3-----x--x-----------------

E|-----x--x--------x--x--------x--x-----------------
B|-----x--x--------x--x--------x--x-----------------
G|-----x--x--------x--x--------x--x--5--5--5--5--5--
D|-----x--x--5-----x--x--5-----x--x--5--5--5--5--5--
A|-----x--x--5-----x--x--5-----x--x--3--3--3--3--3--
E|-----x--x--3-----x--x--3-----x--x-----------------


E|-----x--x--------x--x--------x--x-----------------
B|-----x--x--------x--x--------x--x-----------------
G|-----x--x--------x--x--------x--x--2--2--2--2--2--
D|-----x--x--3-----x--x--3-----x--x--2--2--2--2--2--
A|-----x--x--3-----x--x--3-----x--x--0--0--0--0--0--
E|-----x--x--1-----x--x--1-----x--x-----------------

Song lyrics here
E|-----x--x--------x--x--------x--x-----------------
B|-----x--x--------x--x--------x--x-----------------
G|-----x--x--------x--x--------x--x-----------------
D|-----x--x--3-----x--x--3-----x--x--5--5--5--5--5--
A|-----x--x--3-----x--x--3-----x--x--5--5--5--5--5--
E|-----x--x--1-----x--x--1-----x--x--3--3--3--3--3--

E|-----x--x--------x--x--------x--x-----------------
B|-----x--x--------x--x--------x--x-----------------
G|-----x--x--------x--x--------x--x--5--5--5--5--5--
D|-----x--x--5-----x--x--5-----x--x--5--5--5--5--5--
A|-----x--x--5-----x--x--5-----x--x--3--3--3--3--3--
E|-----x--x--3-----x--x--3-----x--x-----------------

E|-----x--x--------x--x--------x--x-----------------
B|-----x--x--------x--x--------x--x-----------------
G|-----x--x--------x--x--------x--x--5--5--5--5--5--
D|-----x--x--5-----x--x--5-----x--x--5--5--5--5--5--
A|-----x--x--5-----x--x--5-----x--x--3--3--3--3--3--
E|-----x--x--3-----x--x--3-----x--x-----------------


E|-----x--x--------x--x--------x--x-----------------
B|-----x--x--------x--x--------x--x-----------------
G|-----x--x--------x--x--------x--x--2--2--2--2--2--
D|-----x--x--3-----x--x--3-----x--x--2--2--2--2--2--
A|-----x--x--3-----x--x--3-----x--x--0--0--0--0--0--
E|-----x--x--1-----x--x--1-----x--x-----------------

E|-----x--x--------x--x--------x--x-----------------
B|-----x--x--------x--x--------x--x-----------------
G|-----x--x--------x--x--------x--x-----------------
D|-----x--x--3-----x--x--3-----x--x--5--5--5--5--5--
A|-----x--x--3-----x--x--3-----x--x--5--5--5--5--5--
E|-----x--x--1-----x--x--1-----x--x--3--3--3--3--3--


Paste any tab in acousterr's tab maker and we'll play it !!!
Now supports capo and sound effects for vibrato/pull-off/hammer/bends/mutes etc !!! Checkout help section
tabs and chords, guitar tabs, music transcription, music technology, deep learning, music information retrieval, transcribe into tabs & chords, chordify, music renditions, songsterr, reverbnation, tabulature, bollywood chords, ultimate guitar, yousician, guitar lessons, acoustic guitar, electric guitar, guitar tuner, 911 tabs