Guitar Tabs for Punk

(/) Slide Up  (\) Slide Down  (h) Hammer On  (p) Pull Off  (b) Bend (r) Release (v) Vibrato (x) Muted

Tabs for Song : 

Song lyrics here
E|--------------------------------------------------------------------------------------------------------------
B|--------------------------------------------------------------------------------------------------------------
G|--------------------------------------------------------------------------------------------------------------
D|--------2--------2---------4p2--2-----------2--------2---------4p2--2-----------2--------2--------------------
A|--------------------------------------------------------------------------------------------------5--4--2--0--
E|--0-----------0--------0--------------0-----------0--------0--------------0-----------0--------0--------------

Song lyrics here
Song lyrics here
E|--------------------------------------------------------------------------------------------------------------
B|--------------------------------------------------------------------------------------------------------------
G|--------------------------------------------------------------------------------------------------------------
D|--------2--------2---------4p2--2-----------2--------2---------4p2--2-----------2--------2--------------------
A|--------------------------------------------------------------------------------------------------5--4--2--0--
E|--0-----------0--------0--------------0-----------0--------0--------------0-----------0--------0--------------

E|--------------------------------------
B|--------------------------------------
G|--------------------------------------
D|--------2-----------------------------
A|-----------------2--------5--4--2--0--
E|--0-----------0--------0--------------

E|--------------------------------------------------------------------------------------------------------------
B|--------------------------------------------------------------------------------------------------------------
G|--------------------------------------------------------------------------------------------------------------
D|--------2--------2---------4p2--2-----------2--------2---------4p2--2-----------2--------2--------------------
A|--------------------------------------------------------------------------------------------------5--4--2--0--
E|--0-----------0--------0--------------0-----------0--------0--------------0-----------0--------0--------------

Song lyrics here
Song lyrics here
E|--------------------------------------------------------------------------------------------------------------
B|--------------------------------------------------------------------------------------------------------------
G|--------------------------------------------------------------------------------------------------------------
D|--------2--------2---------4p2--2-----------2--------2---------4p2--2-----------2--------2--------------------
A|--------------------------------------------------------------------------------------------------5--4--2--0--
E|--0-----------0--------0--------------0-----------0--------0--------------0-----------0--------0--------------

E|--------------------------------------
B|--------------------------------------
G|--------------------------------------
D|--------2-----------------------------
A|-----------------2--------5--4--2--0--
E|--0-----------0--------0--------------

E|-----------------------------------------------------------------------
B|-----------------------------------------------------------------------
G|-----------------------------------------------------------------------
D|--------------2-----------------2-----------------------------0-----2--
A|-----0-----------------0-----------------0--------5-----4--------------
E|--0--------0--------0--------0--------0--------0-----0-----0-----0-----

E|-----------------------------------------------------------------------
B|-----------------------------------------------------------------------
G|-----------------------------------------------------------------------
D|--------------2-----------------2-----------------------------0-----2--
A|-----0-----------------0-----------------0--------5-----4--------------
E|--0--------0--------0--------0--------0--------0-----0-----0-----0-----



E|--------x--x--------x--x--------------x--x--------x--x--------------x--x--------x--x--------------x--x--------x--x--------x--x--------
B|--5--5--x--x--5--5--x--x--5--5--2--2--x--x--2--2--x--x--2--2--5--5--x--x--5--5--x--x--5--5--------x--x--------x--x--------x--x--------
G|--4--4--x--x--4--4--x--x--4--4--2--2--x--x--2--2--x--x--2--2--4--4--x--x--4--4--x--x--4--4--4--4--x--x--4--4--x--x--4--4--x--x--4--4--
D|--2--2--x--x--2--2--x--x--2--2--0--0--x--x--0--0--x--x--0--0--2--2--x--x--2--2--x--x--2--2--4--4--x--x--4--4--x--x--4--4--x--x--4--4--
A|--------x--x--------x--x--------------x--x--------x--x--------------x--x--------x--x--------2--2--x--x--2--2--x--x--2--2--x--x--2--2--
E|--------x--x--------x--x--------------x--x--------x--x--------------x--x--------x--x--------------x--x--------x--x--------x--x--------

Now supports capo and sound effects for vibrato/pull-off/hammer/bends/mutes etc !!! Checkout help section
E|--------x--x--------x--x--------------x--x--------x--x--------------x--x--------x--x--------------x--x--------x--x--------x--x--------
B|--5--5--x--x--5--5--x--x--5--5--2--2--x--x--2--2--x--x--2--2--5--5--x--x--5--5--x--x--5--5--------x--x--------x--x--------x--x--------
G|--4--4--x--x--4--4--x--x--4--4--2--2--x--x--2--2--x--x--2--2--4--4--x--x--4--4--x--x--4--4--4--4--x--x--4--4--x--x--4--4--x--x--4--4--
D|--2--2--x--x--2--2--x--x--2--2--0--0--x--x--0--0--x--x--0--0--2--2--x--x--2--2--x--x--2--2--4--4--x--x--4--4--x--x--4--4--x--x--4--4--
A|--------x--x--------x--x--------------x--x--------x--x--------------x--x--------x--x--------2--2--x--x--2--2--x--x--2--2--x--x--2--2--
E|--------x--x--------x--x--------------x--x--------x--x--------------x--x--------x--x--------------x--x--------x--x--------x--x--------
tabs and chords, guitar tabs, music contests, music covers, songsterr, reverbnation, renditions, tabulature, bollywood chords, ultimate guitar, yousician, guitar lessons, torrins, fender, gibson, acoustic guitar, electric guitar, youtube covers, gootar, guitar tuner, A-Z tabs, 911 tabs