Guitar Tabs for Bubble Ringz

(/) Slide Up  (\) Slide Down  (h) Hammer On  (p) Pull Off  (b) Bend (r) Release (v) Vibrato (x) Muted

Tabs for Song : Bubble Ringz
BPM : 180

Intro (come in when everyone else does)

E|--12-12-12-12-12-12-12-12-12-12-12-12-12-12-12-12-10-10-10-10-10-10-10-10-10-10-10-10-10-10-10-10-
B|--12-12-12-12-12-12-12-12-12-12-12-12-12-12-12-12-10-10-10-10-10-10-10-10-10-10-10-10-10-10-10-10-
G|--12-12-12-12-12-12-12-12-12-12-12-12-12-12-12-12-11-11-11-11-11-11-11-11-11-11-11-11-11-11-11-11-
D|--12-12-12-12-12-12-12-12-12-12-12-12-12-12-12-12-x--x--x--x--x--x--x--x--x--x--x--x--x--x--x--x--
A|--10-10-10-10-10-10-10-10-10-10-10-10-10-10-10-10-12-12-12-12-12-12-12-12-12-12-12-12-12-12-12-12-
E|--------------------------------------------------10-10-10-10-10-10-10-10-10-10-10-10-10-10-10-10-

E|--12-12-12-12-12-12-12-12-12-12-12-12-12-12-12-12
B|--12-12-12-12-12-12-12-12-12-12-12-12-12-12-12-12
G|--12-12-12-12-12-12-12-12-12-12-12-12-12-12-12-12
D|--12-12-12-12-12-12-12-12-12-12-12-12-12-12-12-12
A|--10-10-10-10-10-10-10-10-10-10-10-10-10-10-10-10
E|-------------------------------------------------


V1
Do you know where we're going?
Going back, back to where we have been?                (Nothing played here)

Wake U-up, Do the same thing
E|--------------------------------------------------------------------------------------------------
B|--------------------------------------------------------------------------------------------------
G|--------------------------------------------------------------------------------------------------
D|--------------------------------------------------------------------------------------------------
E|--10-10-10-10-10-10-10-7--10-10-10-10-10-10-10-7--10-10-10-10-10-10-10-7--10-10-10-10-10-10-10-7--

Sounds li-ike, 
E|------------------------------------------------------------------------------------------------------
B|------------------------------------------------------------------------------------------------------
G|------------------------------------------------------------------------------------------------------
D|------------------------------------------------------------------------------------------------------
A|--------------------------------------------------10-10-10-10-10-10-10-10-10-10-10-10-10-10-10-10-10--
E|--10-10-10-10-10-10-10-7--10-10-10-10-10-10-10-7-----------------------------------------------------



Pre Chorus 1 (up low gain)

I'm mixing salt and chlori-ine
E|--0--0--0--0--0--0--0--0--0--0--0--0--0--0--0--0--0--0--0--0--0--0--0--0--0--0--0--0--0--0--0--0-
B|--0--0--0--0--0--0--0--0--0--0--0--0--0--0--0--0--0--0--0--0--0--0--0--0--0--0--0--0--0--0--0--0-
G|--6--6--6--6--6--6--6--6--6--6--6--6--6--6--6--6--3--3--3--3--3--3--3--3--3--3--3--3--3--3--3--3---
D|--7--7--7--7--7--7--7--7--7--7--7--7--7--7--7--7--4--4--4--4--4--4--4--4--4--4--4--4--4--4--4--4----
A|--7--7--7--7--7--7--7--7--7--7--7--7--7--7--7--7--4--4--4--4--4--4--4--4--4--4--4--4--4--4--4--4---
E|--5--5--5--5--5--5--5--5--5--5--5--5--5--5--5--5--2--2--2--2--2--2--2--2--2--2--2--2--2--2--2--2--

I've lost that feeli-ing
E|--0--0--0--0--0--0--0--0--0--0--0--0--0--0--0--0--0--0--0--0--0--0--0--0--0--0--0--0--0--0--0--0-
B|--0--0--0--0--0--0--0--0--0--0--0--0--0--0--0--0--0--0--0--0--0--0--0--0--0--0--0--0--0--0--0--0-
G|--6--6--6--6--6--6--6--6--6--6--6--6--6--6--6--6--3--3--3--3--3--3--3--3--3--3--3--3--3--3--3--3---
D|--7--7--7--7--7--7--7--7--7--7--7--7--7--7--7--7--4--4--4--4--4--4--4--4--4--4--4--4--4--4--4--4----
A|--7--7--7--7--7--7--7--7--7--7--7--7--7--7--7--7--4--4--4--4--4--4--4--4--4--4--4--4--4--4--4--4---
E|--5--5--5--5--5--5--5--5--5--5--5--5--5--5--5--5--2--2--2--2--2--2--2--2--2--2--2--2--2--2--2--2--



Chorus1

aaa-aaah

E|----5h7---5h7
B|-5h7---5h7---
G|-------------
D|-------------                    x8
A|-------------
E|-------------
                                                                   x2
E|-----7h10--7h10
B|-7h10--7h10---
G|--------------
D|--------------                   x8
A|--------------
E|--------------



Break (STOP come in when everyone else does)

E|--12-12-12-12-12-12-12-12-12-12-12-12-12-12-12-12-10-10-10-10-10-10-10-10-10-10-10-10-10-10-10-10-
B|--12-12-12-12-12-12-12-12-12-12-12-12-12-12-12-12-10-10-10-10-10-10-10-10-10-10-10-10-10-10-10-10-
G|--12-12-12-12-12-12-12-12-12-12-12-12-12-12-12-12-11-11-11-11-11-11-11-11-11-11-11-11-11-11-11-11-
D|--12-12-12-12-12-12-12-12-12-12-12-12-12-12-12-12-x--x--x--x--x--x--x--x--x--x--x--x--x--x--x--x--
A|--10-10-10-10-10-10-10-10-10-10-10-10-10-10-10-10-12-12-12-12-12-12-12-12-12-12-12-12-12-12-12-12-
E|--------------------------------------------------10-10-10-10-10-10-10-10-10-10-10-10-10-10-10-10-

E|--12-12-12-12-12-12-12-12-12-12-12-12-12-12-12-12
B|--12-12-12-12-12-12-12-12-12-12-12-12-12-12-12-12
G|--12-12-12-12-12-12-12-12-12-12-12-12-12-12-12-12
D|--12-12-12-12-12-12-12-12-12-12-12-12-12-12-12-12
A|--10-10-10-10-10-10-10-10-10-10-10-10-10-10-10-10
E|-------------------------------------------------


V2
Eyes are shut, rings are blowing
Do you know the time? No i can't read                (Nothing played here, come in with bass)

Wake U-up, Do the same thing
E|--------------------------------------------------------------------------------------------------
B|--------------------------------------------------------------------------------------------------
G|--------------------------------------------------------------------------------------------------
D|--------------------------------------------------------------------------------------------------
E|--10-10-10-10-10-10-10-7--10-10-10-10-10-10-10-7--10-10-10-10-10-10-10-7--10-10-10-10-10-10-10-7--

Sounds li-ike, we are bleachi-ing
E|------------------------------------------------------------------------------------------------------
B|------------------------------------------------------------------------------------------------------
G|------------------------------------------------------------------------------------------------------
D|------------------------------------------------------------------------------------------------------
A|--------------------------------------------------10-10-10-10-10-10-10-10-10-10-10-10-10-10-10-10-10--
E|--10-10-10-10-10-10-10-7--10-10-10-10-10-10-10-7------------------------------------------------------


Pre Chorus 2 (up low gain)

I'm mixing salt and chlori-ine
E|--0--0--0--0--0--0--0--0--0--0--0--0--0--0--0--0--0--0--0--0--0--0--0--0--0--0--0--0--0--0--0--0-
B|--0--0--0--0--0--0--0--0--0--0--0--0--0--0--0--0--0--0--0--0--0--0--0--0--0--0--0--0--0--0--0--0-
G|--6--6--6--6--6--6--6--6--6--6--6--6--6--6--6--6--3--3--3--3--3--3--3--3--3--3--3--3--3--3--3--3---
D|--7--7--7--7--7--7--7--7--7--7--7--7--7--7--7--7--4--4--4--4--4--4--4--4--4--4--4--4--4--4--4--4----
A|--7--7--7--7--7--7--7--7--7--7--7--7--7--7--7--7--4--4--4--4--4--4--4--4--4--4--4--4--4--4--4--4---
E|--5--5--5--5--5--5--5--5--5--5--5--5--5--5--5--5--2--2--2--2--2--2--2--2--2--2--2--2--2--2--2--2--

I've lost that feeli-ing
E|--0--0--0--0--0--0--0--0--0--0--0--0--0--0--0--0--0--0--0--0--0--0--0--0--0--0--0--0--0--0--0--0-
B|--0--0--0--0--0--0--0--0--0--0--0--0--0--0--0--0--0--0--0--0--0--0--0--0--0--0--0--0--0--0--0--0-
G|--6--6--6--6--6--6--6--6--6--6--6--6--6--6--6--6--3--3--3--3--3--3--3--3--3--3--3--3--3--3--3--3---
D|--7--7--7--7--7--7--7--7--7--7--7--7--7--7--7--7--4--4--4--4--4--4--4--4--4--4--4--4--4--4--4--4----
A|--7--7--7--7--7--7--7--7--7--7--7--7--7--7--7--7--4--4--4--4--4--4--4--4--4--4--4--4--4--4--4--4---
E|--5--5--5--5--5--5--5--5--5--5--5--5--5--5--5--5--2--2--2--2--2--2--2--2--2--2--2--2--2--2--2--2--

x2


Chorus2

aaa-aaah

E|----5h7---5h7
B|-5h7---5h7---
G|-------------
D|-------------                    x8
A|-------------
E|-------------
                                                                   x4
E|-----7h10--7h10
B|-7h10--7h10---
G|--------------
D|--------------                   x8
A|--------------
E|--------------







Use manual mode to free up cursor. Paste any tab in acousterr tab maker and we'll play it !!!
tabs and chords, guitar tabs, music transcription, music technology, deep learning, music information retrieval, transcribe into tabs & chords, chordify, music renditions, songsterr, reverbnation, tabulature, bollywood chords, ultimate guitar, yousician, guitar lessons, acoustic guitar, electric guitar, guitar tuner, 911 tabs