Guitar Tabs for Besabriyan

Tabs for Song : Besabriyan

raste bhage ,paanv se bhi aage

E|--------------------------------------------
B|--------------------------------------------
G|--------------------------------------------
D|--4--2--4--0--2--4-----4--2--4--0--2--4-----
A|--------------------------------------------
E|--------------------------------------------

Zindgi se chal kuch aur bhi maange

E|--------------------------------------
B|--------------------------------------
G|--0-----0-----0--0--0--2-----0--------
D|-----4-----4--------------2-----4-----
A|--------------------------------------
E|--------------------------------------

raste bhage ,paanv se bhi aage

E|--------------------------------------------
B|--------------------------------------------
G|--------------------------------------------
D|--4--2--4--0--2--4-----4--2--4--0--2--4-----
A|--------------------------------------------
E|--------------------------------------------

Zindgi se chal kuch aur bhi maange

E|--------------------------------------
B|--------------------------------------
G|--0-----0-----0--0--0--2-----0--------
D|-----4-----4--------------2-----4-----
A|--------------------------------------
E|--------------------------------------

kya sochna hai jana kaha

E|-----------------------------------
B|-----3--2--3--2--5-----3--2--0-----
G|-----------------------------------
D|--4--------------------------------
A|-----------------------------------
E|-----------------------------------

jaye wahi le jaye jaha

E|-----------------------------------
B|-----3--2--3--2--5-----3--2--0-----
G|-----------------------------------
D|--4--------------------------------
A|-----------------------------------
E|-----------------------------------

besabriyan 

E|--------------------------------
B|--------------------------------
G|--------4-----------------------
D|--2--------2--4--4-----2--0-----
A|--------------------------------
E|--------------------------------

besabriyan

E|-----------------------------------
B|--------------------3--2--5--3-----
G|-----4-----------------------------
D|--2-----2--4--4--------------------
A|-----------------------------------
E|-----------------------------------

kya ye ujale

E|--------------------
B|--2--3--2--3--------
G|--------------2-----
D|--------------------
A|--------------------
E|--------------------

kya ye andhere

E|--------------------
B|--------------------
G|--0--2--2--2--------
D|--------------0-----
A|--------------------
E|--------------------

dono se aage

E|--------------------
B|--2--3--2--3--------
G|--------------2-----
D|--------------------
A|--------------------
E|--------------------

hai manzar tere

E|--------------------
B|--------------------
G|--0--2--2--2--------
D|--------------0-----
A|--------------------
E|--------------------

kyun roshni tu

E|--------------------
B|--2--3--2--3--------
G|--------------2-----
D|--------------------
A|--------------------
E|--------------------

bahar talashe

E|--------------------
B|--------------------
G|--0--2--2--2--------
D|--------------0-----
A|--------------------
E|--------------------

teri mashalein hai

E|--------------------
B|--2--3--2--3--------
G|--------------2-----
D|--------------------
A|--------------------
E|--------------------

ander tere

E|--------------------
B|--------------------
G|--0--2--2--2--------
D|--------------0-----
A|--------------------
E|--------------------
 
kyun dhundhna hai pairo ke nishan

E|--------------------------------
B|-----3--2--3--2--5--3--2--0-----
G|--------------------------------
D|--4-----------------------------
A|--------------------------------
E|--------------------------------

jaye wahi lejaye jaha

E|--------------------------------
B|-----3--2--3--2--5--3--2--0-----
G|--------------------------------
D|--4-----------------------------
A|--------------------------------
E|--------------------------------

besabriyan

E|-----------------------------
B|-----------------------------
G|-----4-----------------------
D|--2-----2--4--4-----2--0-----
A|-----------------------------
E|-----------------------------

besabriyan

E|-----------------------------------
B|--------------------3--2--5--3-----
G|-----4-----------------------------
D|--2-----2--4--4--------------------
A|-----------------------------------
E|-----------------------------------

tabs and chords, guitar tabs, music transcription, music technology, deep learning, music information retrieval, transcribe into tabs & chords, chordify, music renditions, songsterr, reverbnation, tabulature, bollywood chords, ultimate guitar, yousician, guitar lessons, acoustic guitar, electric guitar, guitar tuner, 911 tabs