Guitar Tabs for Bekhayali Kabir Singh Musical G

(/) Slide Up  (\) Slide Down  (h) Hammer On  (p) Pull Off  (b) Bend (r) Release (v) Vibrato (x) Muted

Tabs for Song : 
BPM : 200

Bekhayali Mein Bhi Tera Hi Khayal Aaye
E|-----------------------------------------------------------------------------
B|--------1--0-----3-----------1--0-----3-----------1---0h1--------------------
G|--2--------------------2--------------------2---------------2\0---2/4--------
D|-----------------------------------------------------------------------------
A|-----------------------------------------------------------------------------
E|-----------------------------------------------------------------------------

Kyu Bicharna Hai Zaroori Ye Sawaal Aaye
E|--------------------------------------------------------------------------
B|--------1--0--0--3--------1--0-----3--------1---0h1-----------------------
G|--2-----------------2-----------------2---------------2\0---2\4-----------
D|--------------------------------------------------------------------------
A|--------------------------------------------------------------------------
E|--------------------------------------------------------------------------
Teri Nazdeekiyo.. Ki Khushi.. Behisaab Thi
E|--------------------------------------------------------------------------------------
B|--------------------------------------------------------------------------------------
G|--5-----4--2--0--2------2/9--7-----2------2/9--7-----2------2/9--7---5\4---2/4--------
D|--------------------------------------------------------------------------------------
A|--------------------------------------------------------------------------------------
E|--------------------------------------------------------------------------------------
Hisse Mein Faasle..Bhi Tere..Bemisaal Aaaye
E|-----------------------------------------------------------------------------------------
B|-----------------------------------------------------------------------------------------
G|--5--4---2\0---2\0--2------9\7---7h9-----2------9\7---7h9--2---2/9---7h9---5\4-----2-----
D|-----------------------------------------------------------------------------------------
A|-----------------------------------------------------------------------------------------
E|-----------------------------------------------------------------------------------------
Middle Entro 1
E|--------------------------------------------------------------------------
B|--------------------12-13-12----10\8------8/10--8/10-----8\6--5-----------
G|---7/9--12-12/14----------------------------------------------------------
D|--------------------------------------------------------------------------
A|--------------------------------------------------------------------------
E|--------------------------------------------------------------------------
Entro 2
E|--------------------------------------------------------------
B|--------------------12----13----12----15----15\17-------------
G|---7/9--12-12/14----------------------------------------------
D|--------------------------------------------------------------
A|--------------------------------------------------------------
E|--------------------------------------------------------------
Bekhayali Mein Bhi Tera Hi Khayal Aaye
E|--------------------------------------------------------------------------
B|--------1--0-----3--------1--0-----3-----------1---0h1--------------------
G|--2-----------------2--------------------2---------------2\0---2/4--------
D|--------------------------------------------------------------------------
A|--------------------------------------------------------------------------
E|--------------------------------------------------------------------------
Kyu Bichharna Hai Zaroori Ye Sawal Aaye
E|--------------------------------------------------------------------------------
B|--------1--0--0--3-----------1--0-----3-----------1---0h1-----------------------
G|--2--------------------2--------------------2---------------2\0------2/4--------
D|--------------------------------------------------------------------------------
A|--------------------------------------------------------------------------------
E|--------------------------------------------------------------------------------
Thora Sa Main Khfa Ho Gaya 
E|--------------------------------------------------------------
B|--------------------------------------------------------------
G|---4/5--4------2\0---0/2------2/9--7-----2------2/9--7--------
D|--------------------------------------------------------------
A|--------------------------------------------------------------
E|--------------------------------------------------------------
Apne Aap Se ..Thora Sa Tujhpe Bhi 
E|--------------------------------------------------------------------
B|--------------------------------------------------------------------
G|--2--2---2/9---7h9---5\4---2/-4/5---5\4---4\2---2\0--2--2---2/9--7--
D|--------------------------------------------------------------------
A|--------------------------------------------------------------------
E|--------------------------------------------------------------------
Bewaja..Hi Malaal Aaye
E|--------------------------------------------------------------------
B|--------------------------------------------------------------------
G|--2------2/9---7h9-----2------2/9---7h9---5\4-----2-----------------
D|--------------------------------------------------------------------
A|--------------------------------------------------------------------
E|--------------------------------------------------------------------
Hai Ye Tarpan Hai Ye Uljhan 
E|-----------------------------------------------------------------------
B|-----------------------------------------------------------------------
G|---4\2--4---4h5---4\2--2---2\0------0/2---2\0---2/4---4h5--2---2\0-----
D|-----------------------------------------------------------------------
A|-----------------------------------------------------------------------
E|-----------------------------------------------------------------------
Kese..Jeelu Bina Tere
E|--------------------------------------------------------------
B|--------------------------------------------------------------
G|---0/-2/0------2/4------2/5--5------5h7---5\4---4\2--2--------
D|--------------------------------------------------------------
A|--------------------------------------------------------------
E|--------------------------------------------------------------
Meri Ab Sab Se Hai Ann Bann
E|-----------------------------------------------------------------------
B|-----------------------------------------------------------------------
G|---4\2--4---4h5---4\2--2---2\0---0/2---2\0---2/4---4h5---4\2---2\0-----
D|-----------------------------------------------------------------------
A|-----------------------------------------------------------------------
E|-----------------------------------------------------------------------
Bann Ke Kyu Ae Khuda Mere
E|--------------------------------------------------
B|--------------------------------------------------
G|---0/2--7---5\4------2/5--5---5h7---5\4---2\0--2--
D|--------------------------------------------------
A|--------------------------------------------------
E|--------------------------------------------------
Oooo..Hmm.hmmmm..mmmm
E|--------------------------------------------------------------------
B|--------------------------------------------------------------------
G|--5-----4-----2--------0-----2-----5-----4-----2------2/-4/-2/4-----
D|--------------------------------------------------------------------
A|--------------------------------------------------------------------
E|--------------------------------------------------------------------
Ye Jo Log Baagh Hai..Jangal Ki Aag Mein
E|-----------------------------------------------------------------------------
B|-----------------------------------------------------------------------------
G|---4/5------5\4---4/5--4---4/5--4---4/5------5\4---4/5--4---4/5--5---5/7-----
D|-----------------------------------------------------------------------------
A|-----------------------------------------------------------------------------
E|-----------------------------------------------------------------------------
Kyu Aag Mein Jalu.....
E|--------------------------------------------------------------------
B|--------------------------------------------------------------------
G|---7\5---5/7--5---5/7--7---7/9-----7-----5---5/7-----5-----4--------
D|--------------------------------------------------------------------
A|--------------------------------------------------------------------
E|--------------------------------------------------------------------
Ye naa-kaam pyaar mein khush hai ye haar mein
E|-----------------------------------------------------------------------------
B|-----------------------------------------------------------------------------
G|---4/5------5\4---4/5--4---4/5--4---4/5-----5--4---4/5--4---4/5--5---5/7-----
D|-----------------------------------------------------------------------------
A|-----------------------------------------------------------------------------
E|-----------------------------------------------------------------------------

E|--
B|--
G|--
D|--
A|--
E|--

Use manual mode to free up cursor. Paste any tab in acousterr tab maker and we'll play it !!!
tabs and chords, guitar tabs, music transcription, music technology, deep learning, music information retrieval, transcribe into tabs & chords, chordify, music renditions, songsterr, reverbnation, tabulature, bollywood chords, ultimate guitar, yousician, guitar lessons, acoustic guitar, electric guitar, guitar tuner, 911 tabs