Ukulele Tabs for Bekhayali Ukulele

Humming
A|--0-----3--2-----0--0--0-----3--2-----0--0--0-----3---2h-3p2--------------
E|--------------------------------------------------------------3---5/7-----
C|--------------------------------------------------------------------------
G|--------------------------------------------------------------------------

Bekhayali mein bhi tera hi khayaal aaye
A|-----0-----3--2-----5-----0-----3--2-----5-----0-----3---2h-3p2--------------
E|-----------------------------------------------------------------3---5/7-----
C|-----------------------------------------------------------------------------
G|-----------------------------------------------------------------------------

Kyun bichhadna hai zaroori ye sawaal aaye
A|-----0-----3--2-----5-----0-----3--2-----5-----0-----3---2h-3p2--------------
E|-----------------------------------------------------------------3---5/7-----
C|-----------------------------------------------------------------------------
G|-----------------------------------------------------------------------------

Teri nazdeekiyon ki khushi behisaab thi
A|--------------------7--5-----------------7--5-----------------7---5h-7p5--------------
E|---7/8--7--5--5--------------5--5--5--------------5--5--5-----------------5---5/7-----
C|--------------------------------------------------------------------------------------
G|--------------------------------------------------------------------------------------

Hisse mein faasle bhi tere bemisaal aaye
A|--------------------7--5-----------------7--5-----------------7---5h-7p5--------------
E|---7/8--7--5--5--------------5--5--5--------------5--5--5------------------7h-8p7--5--
C|--------------------------------------------------------------------------------------
G|--------------------------------------------------------------------------------------

Main jo tumse door hoon
Kyun door main rahoon
A|---2h3-----3--3--3--2--3--2--3-----3--3--3--2--3--2---3/5--
E|-----------------------------------------------------------
C|-----------------------------------------------------------
G|-----------------------------------------------------------

Tera guroor hoon
A|--5--5--5--3--5--3---5/7-----5--3---3h-5p3--3--2--
E|--------------------------------------------------
C|--------------------------------------------------
G|--------------------------------------------------

Aa tu faasla mita
Tu khwaab sa mila
A|---2h3--3--3--3--2--3--2--3-----3--3--3--2--3--2---3/5--
E|--------------------------------------------------------
C|--------------------------------------------------------
G|--------------------------------------------------------

Kyun khwaab tod doon oo..
A|--5--5--5--3--5--3---5/7--7--7--7--
E|-----------------------------------
C|-----------------------------------
G|-----------------------------------

ukulele solo
A|-----------------------2--3---2h-3p2--------
E|-----3---3h5--5--5--5-----------------3-----
C|--4--------------------------------------4--
G|--------------------------------------------


A|--------------------------------------------
E|-----3--3--5--3--5--5---3h-5p3--3-----------
C|--4--------------------------------5--4-----
G|--------------------------------------------


A|--------------------------2--3---2h-3p2-----------5--3---5/7--7--7--7---5h-7p5--3---5/7--
E|--------3---3/5--5--5--5-----------------3--5--5-----------------------------------------
C|-----4-----------------------------------------------------------------------------------
G|-----------------------------------------------------------------------------------------

raatein dengi bata
A|--3-----3---2h-3p2--------3-----3---2h-3p2--------
E|---------------------3/5---------------------3/5--
C|--------------------------------------------------
G|--------------------------------------------------

neendon me teri he baat hai
A|--5--5--3--3--5-----10----10----7--5-----
E|-----------------------------------------
C|-----------------------------------------
G|-----------------------------------------

Dard tumhaara badan mein mere
A|--------------------------2--2--2--2---2h-3p2-----
E|---3/5--5--5--5--5--3--------------------------5--
C|--------------------------------------------------
G|--------------------------------------------------

Zeher ki tarah utar raha hai
A|--------------------------2--2--2--2---2h-3p2-----
E|---3/5--5--5--5--5--3--------------------------5--
C|--------------------------------------------------
G|--------------------------------------------------
tabs and chords, guitar tabs, music transcription, music technology, deep learning, music information retrieval, transcribe into tabs & chords, chordify, music renditions, songsterr, reverbnation, tabulature, bollywood chords, ultimate guitar, yousician, guitar lessons, acoustic guitar, electric guitar, guitar tuner, 911 tabs