Guitar Tabs for Bb Ki Vines Outro Tabs

E|--------------------------------------------------
B|--6-----6--8--6-----------4-----4--6--4-----------
G|-----------------7--5--7-----------------5--3--5--
D|--------------------------------------------------
A|--------------------------------------------------
E|--------------------------------------------------

E|-----------------------------------------------
B|-----------3-----------------------------------
G|--5--4--5-----5--2-----------2-----------------
D|--------------------3--5--------3--5--2--3-----
A|-----------------------------------------------
E|-----------------------------------------------

E|-----------------------------------------------------
B|-----6-----6--8--6-----------4-----4--6--4-----------
G|--------------------7--5--7-----------------5--3--5--
D|-----------------------------------------------------
A|-----------------------------------------------------
E|-----------------------------------------------------

E|-----------------------------------------------
B|-----------3-----------------------------------
G|--5--4--5-----5--2-----------2-----------------
D|--------------------3--5--------3--5--2--3-----
A|-----------------------------------------------
E|-----------------------------------------------

tabs and chords, guitar tabs, music transcription, music technology, deep learning, music information retrieval, transcribe into tabs & chords, chordify, music renditions, songsterr, reverbnation, tabulature, bollywood chords, ultimate guitar, yousician, guitar lessons, acoustic guitar, electric guitar, guitar tuner, 911 tabs