Guitar Tabs for Outro

E|-----------------------------------------------------------------------------------(5)------------
B|-----------------------------------------------------------------------------------(5)------------
G|-----------------------------------------------------------------------------------(5)------------
D|--------------------------------------------------------------------------------------------------
A|--------------------------------------------------------------------------------------------------
D|--0--------3--------3-----5-----5--------8--7--8--7--8--7--3-----3-----5-----5--------------------

E|--------------------------------------------------------------------------------------------------
B|--------------------------------------------------------------------------------------------------
G|--------------------------------------------------------------------------------------------------
D|--0--------3--------3-----5-----5--------8--7--8--7--8--7--3-----3-----5-----5--------------------
A|--0--------3--------3-----5-----5--------8--7--8--7--8--7--3-----3-----5-----5--------------------
D|--0--------3--------3-----5-----5--------8--7--8--7--8--7--3-----3-----5-----5--------------------

E|-----------------------------------------------------------------------------------(5)------------
B|-----------------------------------------------------------------------------------(5)------------
G|-----------------------------------------------------------------------------------(5)------------
D|--0--------3--------3-----5-----5--------8--7--8--7--8--7--3-----3-----5-----5--------------------
A|--0--------3--------3-----5-----5--------8--7--8--7--8--7--3-----3-----5-----5--------------------
D|--0--------3--------3-----5-----5--------8--7--8--7--8--7--3-----3-----5-----5--------------------

E|-------------------------------------------------------------------------------------------------
B|-------------------------------------------------------------------------------------------------
G|-------------------------------------------------------------------------------------------------
D|--0--0--3--0--0-----3--0--1-----3--0--0-----x--x--0--0--3--0--0-----3--0--0-----3--0--0-----x--x-  [x2]
A|--0--0--3--0--0-----3--0--1-----3--0--0-----x--x--0--0--3--0--0-----3--0--0-----3--0--0-----x--x-
D|--0--0--3--0--0-----3--0--1-----3--0--0-----x--x--0--0--3--0--0-----3--0--0-----3--0--0-----x--x- 

E|--------------------------------------------------------------------------------------------------
B|--------------------------------------------------------------------------------------------------
G|--7--7--7--7--7--7--8--8--7--7--7--7--7--7--8--8--7--7--7--7--7--7--8--8--7--7--7--7--6--6--5--5--
D|--7--7--7--7--7--7--8--8--7--7--7--7--7--7--8--8--7--7--7--7--7--7--8--8--7--7--7--7--6--6--5--5--
A|--5--5--5--5--5--5--6--6--5--5--5--5--5--5--6--6--5--5--5--5--5--5--6--6--5--5--5--5--4--4--3--3--
D|--------------------------------------------------------------------------------------------------

E|--------------------------------------------------------------------------------------------------
B|--------------------------------------------------------------------------------------------------
G|--7--7--7--7--7--7--8--8--7--7--7--7--7--7--8--8--7--7--7--7--7--7--8--8--7--7--7--7--5--5--------
D|--7--7--7--7--7--7--8--8--7--7--7--7--7--7--8--8--7--7--7--7--7--7--8--8--7--7--7--7--5--5--3--3--
A|--5--5--5--5--5--5--6--6--5--5--5--5--5--5--6--6--5--5--5--5--5--5--6--6--5--5--5--5--3--3--3--3--
D|--------------------------------------------------------------------------------------------3--3--

E|--------------------------------------------------------------------------------------------------
B|--------------------------------------------------------------------------------------------------
G|--------------------------------------------------------------------------------------------------
D|--0--------3--------3-----5-----5-----8--7--8--7--8--7--3-----3-----5-----5-----------------------
A|--0--------3--------3-----5-----5-----8--7--8--7--8--7--3-----3-----5-----5-----------------------
D|--0--------3--------3-----5-----5-----8--7--8--7--8--7--3-----3-----5-----5-----------------------

E|--------------------------------------------------------------------------------(5)--------------
B|--------------------------------------------------------------------------------(5)--------------
G|--------------------------------------------------------------------------------(5)--------------
D|--0--------3--------3-----5-----5-----8--7--8--7--8--7--3-----3-----5-----5----------------------
A|--0--------3--------3-----5-----5-----8--7--8--7--8--7--3-----3-----5-----5----------------------
D|--0--------3--------3-----5-----5-----8--7--8--7--8--7--3-----3-----5-----5----------------------

E|-------------------------------------------------------------------------------------------------
B|-------------------------------------------------------------------------------------------------
G|-------------------------------------------------------------------------------------------------
D|----0--------------------------------------------------------------------------------------------
A|----0--------------------------------------------------------------------------------------------
D|----0--------------------------------------------------------------------------------------------

tabs and chords, guitar tabs, music transcription, music technology, deep learning, music information retrieval, transcribe into tabs & chords, chordify, music renditions, songsterr, reverbnation, tabulature, bollywood chords, ultimate guitar, yousician, guitar lessons, acoustic guitar, electric guitar, guitar tuner, 911 tabs