Guitar Tabs for Bapa Kupersembahkan Tubuhku

Intro:
E|--0--1--3--5-----------5--5--5--------3--1--0--3-----1-----1--0--1--------
B|--------------------------------------------------------------------------
G|--------------------------------------------------------------------------
D|--------------------------------------------------------------------------
A|--------------------------------------------------------------------------
E|--------------------------------------------------------------------------
  
E|--1--3--5--8-----7--7-----------------7--5--3--8--------------------------
B|--------------------------------------------------------------------------
G|--------------------------------------------------------------------------
D|--------------------------------------------------------------------------
A|--------------------------------------------------------------------------
E|--------------------------------------------------------------------------
    Ba     pa                   kupersembah    kan   hidupku
E|--0-----0--------------------------0--3-----1-----1--0--1-----------------
B|-----------------------------1--3-----------------------------------------
G|--------------------------------------------------------------------------
D|--------------------------------------------------------------------------
A|--------------------------------------------------------------------------
E|--------------------------------------------------------------------------
    Sba   gai                  persembahan          yg hidup
E|--------------------------------------1-----------0-----0-----------------
B|--3-----3--------------------0--1--3-----------------3--------------------
G|--------------------------------------------------------------------------
D|--------------------------------------------------------------------------
A|--------------------------------------------------------------------------
E|--------------------------------------------------------------------------
    Ku   dus                  dan yg berke    nan   padaMu
E|--0-----0--------------------------0--3-----1-----1--0--1-----------------
B|-----------------------------1--3-----------------------------------------
G|--------------------------------------------------------------------------
D|--------------------------------------------------------------------------
A|--------------------------------------------------------------------------
E|--------------------------------------------------------------------------
    Sba  gai                   ibadah   yg          sejati
E|--------------------------------------------------------------------------
B|--3-----3--------------------0--1--3--3-----------1--0--1-----------------
G|--------------------------------------------------------------------------
D|--------------------------------------------------------------------------
A|--------------------------------------------------------------------------
E|--------------------------------------------------------------------------
    Ku sembah kau                       Tu       han
E|--3--5--7--8--------------------------0--------1--------------------------
B|--------------------------------------------------------------------------
G|--------------------------------------------------------------------------
D|--------------------------------------------------------------------------
A|--------------------------------------------------------------------------
E|--------------------------------------------------------------------------
    Ku sembah kau                       Tu       han
E|--1--3--5--7--------------------------10-------0--------------------------
B|--------------------------------------------------------------------------
G|--------------------------------------------------------------------------
D|--------------------------------------------------------------------------
A|--------------------------------------------------------------------------
E|--------------------------------------------------------------------------
    Kuserah kan          hidupku        kepada         Mu    
E|--0--1--3--5-----------5--5--5--------3--1--0--3-----1-----1--0--1--------
B|--------------------------------------------------------------------------
G|--------------------------------------------------------------------------
D|--------------------------------------------------------------------------
A|--------------------------------------------------------------------------
E|--------------------------------------------------------------------------
    Untuk kemu    lia an                na    ma Mu
E|--1--3--5--8-----7--7-----------------7--5--3--8--------------------------
B|--------------------------------------------------------------------------
G|--------------------------------------------------------------------------
D|--------------------------------------------------------------------------
A|--------------------------------------------------------------------------
E|--------------------------------------------------------------------------
tabs and chords, guitar tabs, music transcription, music technology, deep learning, music information retrieval, transcribe into tabs & chords, chordify, music renditions, songsterr, reverbnation, tabulature, bollywood chords, ultimate guitar, yousician, guitar lessons, acoustic guitar, electric guitar, guitar tuner, 911 tabs