Guitar Tabs for Tuhan Kau Gembala Kami

(/) Slide Up  (\) Slide Down  (h) Hammer On  (p) Pull Off  (b) Bend (r) Release (v) Vibrato (x) Muted

Tabs for Song : 

Intro:
E|--3--3--5-----8-----------7--5--3-----8-----------------0-----3-----1-----------------
B|--------------------------------------------------1--3--------------------3-----1-----
G|--------------------------------------------------------------------------------------
D|--------------------------------------------------------------------------------------
A|--------------------------------------------------------------------------------------
E|--------------------------------------------------------------------------------------

   Tu     han   kau gembala ka    a     mi    i     tun   tun   kami dombaMu
E|--0-----0-----0-----0--1--3-----8-----3-----0-----------0-----1--5--3--1--0-----------
B|-----------------3--------------------------------3-----------------------------------
G|--------------------------------------------------------------------------------------
D|--------------------------------------------------------------------------------------
A|--------------------------------------------------------------------------------------
E|--------------------------------------------------------------------------------------
    Ka    mi    mohon menikma     a     ti    i     hik   mat   pengurbananMu
E|--0-----0-----0-----0--1--3-----8-----3-----0-----------0-----1--5--3--1--0-----------
B|-----------------3--------------------------------3-----------------------------------
G|--------------------------------------------------------------------------------------
D|--------------------------------------------------------------------------------------
A|--------------------------------------------------------------------------------------
E|--------------------------------------------------------------------------------------
    Tuhan Ye    sus         juru sla    mat         kami i      ni    mi    lik   Mu
E|--3--3--5-----8-----------7--5--3-----0-----------0--0--------5-----3-----1-----0-----
B|--------------------------------------------------------3-----------------------------
G|--------------------------------------------------------------------------------------
D|--------------------------------------------------------------------------------------
A|--------------------------------------------------------------------------------------
E|--------------------------------------------------------------------------------------
    Tuhan Ye    sus         juru sla    mat         kami i      ni    mi    lik   mu
E|--3--3--5-----8-----------7--5--3-----8-----------------0-----3-----1-----------------=
B|--------------------------------------------------1--3--------------------3-----1-----
G|--------------------------------------------------------------------------------------
D|--------------------------------------------------------------------------------------
A|--------------------------------------------------------------------------------------
E|--------------------------------------------------------------------------------------

Paste any tab in acousterr's tab maker and we'll play it !!!
Now supports capo and sound effects for vibrato/pull-off/hammer/bends/mutes etc !!! Checkout help section
tabs and chords, guitar tabs, music transcription, music technology, deep learning, music information retrieval, transcribe into tabs & chords, chordify, music renditions, songsterr, reverbnation, tabulature, bollywood chords, ultimate guitar, yousician, guitar lessons, acoustic guitar, electric guitar, guitar tuner, 911 tabs