Guitar Tabs for Baarish

(/) Slide Up  (\) Slide Down  (h) Hammer On  (p) Pull Off  (b) Bend (r) Release (v) Vibrato (x) Muted

Tabs & Chords
BPM : 117.0
Check Track 2 for Chord Positions 

    C                 Am                            F                       G                 
E|--------------------------------------------------------------------------3-----------------
B|-----------------------------------------------------------------------------------0-----1--
G|--------------------------------------------------------------------------------3-----------
D|--2-----2-----2-----2-----2-----2-----2-----2-----3-----3-----3-----3-----------------------
A|--------------------------------------------------------------------------------------------
E|--------------------------------------------------------------------------------------------

                C                                      F                                      
E|--3--1--0-----------1--0-----------------3--1--0-----------1-----0--1--0--------------------
B|-----------3--3--------------1-----1--------------3--3--------------------3--1--------------
G|--------------------------------------------------------------------------------2-----2--2--
D|--------------------------------------------------------------------------------------------
A|--------------------------------------------------------------------------------------------
E|--------------------------------------------------------------------------------------------

       G                                                                                      
E|-----------------------------------0--------------0-----------------------------0-----------
B|-----3--3--3-----3-----3--1--0--------3--3--3--------3--1--0-----3--3--3-----3-----3--1--0--
G|--------------------------------------------------------------------------------------------
D|--------------------------------------------------------------------------------------------
A|--------------------------------------------------------------------------------------------
E|--------------------------------------------------------------------------------------------

          
E|--------
B|--0--0--
G|--------
D|--------
A|--------
E|--------

Guitar Tabs for Baarish






    C                 Am                            F                       G                 
E|--0-----------------0-----------------------------1-----------------------3-----------------
B|--1-----------------1-----------------------------1-----------------------3-----------------
G|--0-----------------2-----------------------------2-----------------------4-----------------
D|--2-----------------2-----------------------------3-----------------------5-----------------
A|--3-----------------0-----------------------------3-----------------------5-----------------
E|--------------------------------------------------1-----------------------3-----------------

                C                                      F                                      
E|--------------0--------------------------------------1--------------------------------------
B|--------------1--------------------------------------1--------------------------------------
G|--------------0--------------------------------------2--------------------------------------
D|--------------2--------------------------------------3--------------------------------------
A|--------------3--------------------------------------3--------------------------------------
E|-----------------------------------------------------1--------------------------------------

       G                                                                                      
E|-----3--------------------------------------------------------------------------------------
B|-----3--------------------------------------------------------------------------------------
G|-----4--------------------------------------------------------------------------------------
D|-----5--------------------------------------------------------------------------------------
A|-----5--------------------------------------------------------------------------------------
E|-----3--------------------------------------------------------------------------------------

          
E|--------
B|--------
G|--------
D|--------
A|--------
E|--------

tabs and chords, guitar tabs, music transcription, music technology, deep learning, music information retrieval, transcribe into tabs & chords, chordify, music renditions, songsterr, reverbnation, tabulature, bollywood chords, ultimate guitar, yousician, guitar lessons, acoustic guitar, electric guitar, guitar tuner, 911 tabs