Guitar Tabs for Baarish - Yaarian Tabs

dil mera h nasmajh kitna 
E|-----------------------------------------------
B|--3-----4--1-----3--------1--------------------
G|--------------------3--------2--0-----0--2-----
D|-----------------------------------3-----------
A|-----------------------------------------------
E|-----------------------------------------------

bessabar ye bevkoof bda
E|-----------------------------------------------
B|--1-----3--------1-----------------------------
G|-----------3--------2-----2--3--2--0-----0-----
D|--------------------------------------3--------
A|-----------------------------------------------
E|-----------------------------------------------

chahta h kitna tujhe
E|--------------3-----1-----------------------
B|--3-----4--4-----------4---1--4-----3--1----
G|--------------------------------------------
D|--------------------------------------------
A|--------------------------------------------
E|--------------------------------------------

khud mager nhi jaan ska
E|-----------------------------------------------
B|--------------------1--------------------------
G|--------0--2-----3--------2--2-----0-----0-----
D|--3-----------------------------------3--------
A|-----------------------------------------------
E|-----------------------------------------------

is darde dil ki sifarish
E|-----------------------------------------
B|-----------------------------------------
G|-----2--2--0--2--0--0-----0--------0-----
D|--0--------------------------3--0--------
A|-----------------------------------------
E|-----------------------------------------

ab kar de koi yaha 
E|-----------------------------------------
B|-----------------------------------------
G|--------------------5--------------------
D|--5--5--7-----7--8--------7--5--5--------
A|-----------------------------------8-----
E|-----------------------------------------

ki mil jaye ise wo barish
E|-----------------------------------
B|-----------------------------------
G|-----------------------------------
D|-----7--7--5--5--5--5--------5-----
A|--5--------------------8--5--------
E|-----------------------------------

jo bhiga de puri tarha
E|--------------------------------
B|--------------------------------
G|--------------------------------
D|--5--4--4--5--5--7--7--5--5-----
A|--------------------------------
E|--------------------------------
tabs and chords, guitar tabs, music transcription, music technology, deep learning, music information retrieval, transcribe into tabs & chords, chordify, music renditions, songsterr, reverbnation, tabulature, bollywood chords, ultimate guitar, yousician, guitar lessons, acoustic guitar, electric guitar, guitar tuner, 911 tabs