Guitar Tabs for Baarish Lete Aana

Aati ho toh baarish lete aana
Jee bhar ke rone ka dil karta hai
E|-----------2-----------2-----------5------3/5--5--3--3--2--2--0-----------------
B|-----3--5-----3--3--5-----3---3/5--------------------------------3--2---3/5-----
G|--------------------------------------------------------------------------------
D|--------------------------------------------------------------------------------
A|--------------------------------------------------------------------------------
E|--------------------------------------------------------------------------------


Rehti hai yeh khwahish honthon par hi
Jab bhi yeh dil mera jo bharta hai
E|-----------2-----------2-----------5------3/5--5--3--3--2--2--0-----------------
B|-----3--5-----3--3--5-----3---3/5--------------------------------3--2---3/5-----
G|--------------------------------------------------------------------------------
D|--------------------------------------------------------------------------------
A|--------------------------------------------------------------------------------
E|--------------------------------------------------------------------------------


Kuch khwaab likhe hai khaton mein
Tumko sonp doon
E|--------10-12----10-12----10-12----10-12-12-10----12----12/14----12----10-10----
B|---7/10-------------------------------------------------------------------------
G|--------------------------------------------------------------------------------
D|--------------------------------------------------------------------------------
A|--------------------------------------------------------------------------------
E|--------------------------------------------------------------------------------


Iss dard ki zameen pe main
Khudko ronp doon
E|--------10-12----10-12----10-12----10-12-12-10----12----12/14----12----10-10----
B|---7/10-------------------------------------------------------------------------
G|--------------------------------------------------------------------------------
D|--------------------------------------------------------------------------------
A|--------------------------------------------------------------------------------
E|--------------------------------------------------------------------------------


(humming)
E|-----------------------------------------------------------------------------------------------------------------
B|-----------------3--------------------------3------------3/5-----3-----2-----3-----------------------3-----------
G|-----4-----6--------------------4-----6--------------------------------------------------4-----6-----------------
D|-----------------------5--------------------------4--------------------------------5-----------------------4-----
A|-----------------------------------------------------------------------------------------------------------------
E|-----------------------------------------------------------------------------------------------------------------

E|--2-----------------------3-----------------------------
B|--------5-----2-----3------------5/7-----5-----3--3-----
G|--------------------------------------------------------
D|--------------------------------------------------------
A|--------------------------------------------------------
E|--------------------------------------------------------


(violin)
E|------------------7/9--10/12-9--10----------10\7--------------
B|-----------7--10----------------------10/12-------8---8/10----
G|---5/7--9-----------------------------------------------------
D|--------------------------------------------------------------
A|--------------------------------------------------------------
E|--------------------------------------------------------------

E|------------------------5/7-----9--10-10/12----12/15-15-14----
B|--10\8--7--8--7--5--7-----------------------------------------
G|--------------------------------------------------------------
D|--------------------------------------------------------------
A|--------------------------------------------------------------
E|--------------------------------------------------------------


Waqt ki thi humse kuch naraazgi
E|--------------------------------------------------
B|---3/5--5--3--3-----3--2--2---2h-3p2--2-----2-----
G|-----------------------------------------4--------
D|--------------------------------------------------
A|--------------------------------------------------
E|--------------------------------------------------


Keh na sake hum woh baatein aaj bhi
E|--------------------------------------------------
B|---3/5--5--3--3-----3--2--2---2h-3p2--2-----2-----
G|-----------------------------------------4--------
D|--------------------------------------------------
A|--------------------------------------------------
E|--------------------------------------------------


Jinko liye hum tum ho gaye judaa…
E|--3--3--5---5/6--5--3--2--2--------2-----
B|--------------------------------5--------
G|-----------------------------------------
D|-----------------------------------------
A|-----------------------------------------
E|-----------------------------------------


Phir bhi woh lamhein tum lete aana
Aadhe adhure se jo chhute thhe
E|-----------2-----------2-----------5------3/5--5--3--3--2--2--0-----------------
B|-----3--5-----3--3--5-----3---3/5--------------------------------3--2---3/5-----
G|--------------------------------------------------------------------------------
D|--------------------------------------------------------------------------------
A|--------------------------------------------------------------------------------
E|--------------------------------------------------------------------------------

tabs and chords, guitar tabs, music transcription, music technology, deep learning, music information retrieval, transcribe into tabs & chords, chordify, music renditions, songsterr, reverbnation, tabulature, bollywood chords, ultimate guitar, yousician, guitar lessons, acoustic guitar, electric guitar, guitar tuner, 911 tabs