Guitar Tabs for Ashiquee Theme Song

(/) Slide Up  (\) Slide Down  (h) Hammer On  (p) Pull Off  (b) Bend (r) Release (v) Vibrato (x) Muted

Tabs for Song : 

Song lyrics here
E|-------------------------------------------
B|--5--7--8--5--7--8--------------------------
G|--------------------4--5-----5--4--5--------
D|--------------------------------------------
A|--------------------------------------------
E|--------------------------------------------

E|-----------------------------------------
B|--------7--------7-----------------------
G|--5--7-----5--7--------5--5--4--4-----4--
D|-----------------------------------5-----
A|-----------------------------------------
E|-----------------------------------------

E|-----------------------9--9--7--7--5--7--
B|-----7--9-----7--9-----------------------
G|--9--------9-----------------------------
D|-----------------------------------------
A|-----------------------------------------
E|-----------------------------------------

E|-----------------9--9--7--9--10-9--7--9--
B|-----9--9--7--7--------------------------
G|-----------------------------------------
D|-----------------------------------------
A|-----------------------------------------
E|-----------------------------------------

Song lyrics here

Paste any tab in acousterr's tab maker and we'll play it !!!
Now supports capo and sound effects for vibrato/pull-off/hammer/bends/mutes etc !!! Checkout help section
tabs and chords, guitar tabs, music transcription, music technology, deep learning, music information retrieval, transcribe into tabs & chords, chordify, music renditions, songsterr, reverbnation, tabulature, bollywood chords, ultimate guitar, yousician, guitar lessons, acoustic guitar, electric guitar, guitar tuner, 911 tabs