Guitar Tabs for Aru Kalo

(/) Slide Up  (\) Slide Down  (h) Hammer On  (p) Pull Off  (b) Bend (r) Release (v) Vibrato (x) Muted

Tabs for Song : Aru Kalo by 1974AD

Intro:

Guitar1: Dist
E|----------------------------------------------------------------
B|--2\7---------------------------2\7-----------------------------
G|--2\7---7-----7-----------------2\7---7-----7-------------------
D|--2\7------7---7/--2--0--2\5----2\7------7---7/--2--0--2\5--2---
A|----------------------------------------------------------------
E|----------------------------------------------------------------

Guitar2: Clean
E|-------------------------------------------------------------------------
B|--3--3--------------------------2-----3--3-------------------------------
G|--2--2--2h4-2-0--------0--0--x--0-----2--2--2h4-2-0--------0--0--x-----0-
D|--0--0-----------2--0--2--2--x--2-----0--0-----------2--0--2--2--x-----2-
A|-----------------------2--2--x-----------------------------2--2--x-----2-
E|-------------------------------------------------------------------------

Verse 01: 

Deuna tyo timro joban yo jyan lai
Rani nai banai rakhchhu mero man mai

Huna ta yo man mero sojho nai ho
Timilai napayera baraleko ho

E|--------------------------------------------------------------------------------
B|--------------------------------------------------------------------------------
G|--2--2---2h4--2--0-----------------------2--2---2h4--2--0-----------------------
D|--------------------2--0--2--2--2--2\5---------------------2--0--2--2--2\5--2---
A|--------------------------------------------------------------------------------
E|--------------------------------------------------------------------------------

Bujha na kanchhi, Yo manko kura
    A                                      Em
E|--------------------------------------------------12----------------12----------
B|-----------14----------------14-------------12-------12-------12-------12-------
G|-----14-------14-------14-------14-------\12----12-------12-12----12-------12---
D|--\14----14-------14-14----14-------14------------------------------------------
A|--------------------------------------------------------------------------------
E|--------------------------------------------------------------------------------
 
Timi nabhaye..ee, Ma hunna pura
    A                                      C
E|-----------------------------------------------
B|-----------14----------------14----------13----
G|-----14-------14-------14-------14-------------
D|--\14----14-------14-14----14-------14---------
A|-----------------------------------------------
E|-----------------------------------------------


Bridge:
              
E|--------------------------------------------------------------------------------------
B|--------------------------------------------------------------------------------------
G|--2--0--2--0---2\4--------2--0--2-------------2--0--2--0---2\4---4\7--2--0--2---------
D|-----------------------------------0--0h2--------------------------------------0--0h2-
A|--------------------------------------------------------------------------------------
E|--------------------------------------------------------------------------------------

Verse 02: same as verse 01

Sunako bala aauthi ra mala khiyera jala
Manchheko mana bhagya ra dhana badali jala

Hunata yo mana mero sojho nai ho
Timilai napayera baraleko ho

Bujha na kanchhi, Yo manko kura
Timi nabhaye..ee, Ma hunna pura


Verse 03: 

Em                       A
Aauchhu ma ta timro lagi sara sansar chhadera
Em                       C         D
Maya garchhu timlai hera yo jyanai falera

Em                         A
Binti garchhu kanchhi hera dui hata jodera
Em                      C        D
Bhara mero para kanchhi janna ma chodera

Bridge: 
 
    Em
E|-----
B|--15b
G|-----
D|-----
A|-----
E|-----

Guitar 1: Distro    
    Em
E|--------------------------------------------------------------------------------
B|--------------------------------------------------------------------------------
G|--------------------------------------------------------------------------------
D|--------------------------------------------------------------------7--5-----5--
A|--7---7--7--7--5--------5--5--5--5-----5-----7--7--7--7--5--------7--------7----
E|------------------7-----------------7-----------------------7-------------------

Trumpet Part:
E|-----------------------------
B|-----------------------------
G|-----------------------------
D|--9-----7-----9-----7--7--7--
A|--7--9--5--7--7--9--5--5--5--
E|-----7-----5-----7-----------

chorus:

Em                    A
Aru kalo railko dhuwa le.... x2
Em         D           C           Em
Ma ta kalo chata hajur oddai na odanale x2

Repeat Trumpet Part:
Solo:

    Em
E|--------15-------------------------------------------
B|--15b15----15----------------------------------------
G|--14b---------14b14r---12-14-12h14p12----12----------
D|--------------------------------------14----14-14-12-
A|-----------------------------------------------------
E|-----------------------------------------------------

E|-----------------------------------------------------
B|-----------------------------------------------------
G|---7\9--9---9\11-11----11\12-12----12\14-14----------
D|-----------------------------------------------------
A|-----------------------------------------------------
E|-----------------------------------------------------

E|-----------------------------------------------------
B|-----------10-10-10-------------10-10-10-------------
G|--7--7--7--------------7--7--7-----------------------
D|-----------------------------------------------------
A|-----------------------------------------------------
E|-----------------------------------------------------

E|--12-------------------------------------------------
B|-----15b15r---12-------12----------------------------
G|-----------------14-------14-12----------------------
D|-----------------------------------------------------
A|-----------------------------------------------------
E|-----------------------------------------------------

E|--------10-12-15\17-17-17b17b17b------------
B|--10-12-------------------------------------
G|--------------------------------------------
D|--------------------------------------------
A|--------------------------------------------
E|--------------------------------------------

Verse04: 

Em
Kalo bhani nagara hela,
Em
Kalokai payo ni phela

chorus:

Em                    A
Aru kalo railko dhuwa le.... x2
Em         D           C           Em
Ma ta kalo chata hajur oddai na odanale x4

Verse 03:
Em                       A
Aauchhu ma ta timro lagi sara sansar chhadera
Em                       C         D
Maya garchhu timlai hera yo jyanai falera

Em                         A
Binti garchhu kanchhi hera dui hata jodera
Em                      C        D
Bhara mero para kanchhi janna ma chodera


outro:
E|----------------------------------------
B|----------------------------------------
G|--------9--11---------9--9--11----------
D|-9---12-7--9-----9--12-7--7--9-----------
A|-7---10----------7--10-------------------
E|----------------------------------------

E|-----------------------------
B|--------------12-10----------
G|--------9--11-9--7--11-9-----
D|--9--12-7--9--------9--7--12-
A|--7--10-------------------10-
E|-----------------------------

D                     Em      A
Deuna tyo timro joban yo jyan lai 
tabs and chords, guitar tabs, music contests, music covers, songsterr, reverbnation, renditions, tabulature, bollywood chords, ultimate guitar, yousician, guitar lessons, torrins, fender, gibson, acoustic guitar, electric guitar, youtube covers, gootar, guitar tuner, A-Z tabs, 911 tabs