Bass Tabs for City Of Death - Lemonsweet Bass Tab

(/) Slide Up  (\) Slide Down  (h) Hammer On  (p) Pull Off (x) Muted (n) Natural harmonic

Tabs for Song : Art is Dead

Intro
G|--------------------n7-------------------------n7-----------------
D|-----------------n7-------------------------n7--------------------
A|-----0--n12---3-- --------------0--n12---3--------2-----8-----7--
E|-----------------------n10---0-----------------------------------

(vereinfacht)
G|-----------------------------
D|-----------------------------
A|--0--3--2--7-----0--3--8--7--
E|--------------0--------------

Verse 1
G|-----------------------------------------------------------------------
D|-----------------3--3--3--3--5--2--2--2--2--5--7--7--7-----7-----------
A|--0--0--0--0--3-----------------------------------------------5--7-----
E|--------------------------------------------------------5--------------

G|--------------------------------------------------------------------------
D|--------------------------------------------------------------5-----------
A|--0--0--0--0--3--------------------------------------3---5/7-----7---5\3--
E|-----------------1--1--1--1--3--0--0--0--0--0--3--5-----------------------

G|-----------------------------------------------------------
D|-----------------3--3--3--3--5--2--2--2--2--5--7--9--10-12-
A|--0--0--0--0--3--------------------------------------------
E|-----------------------------------------------------------

G|-----------------------------------------------------------------
D|-----------------------------------------------------------------
A|--0--0--0--0--3--------------------------------------------------
E|-----------------1--1--1--1--3--0--0--0--0--3--5--5--5--3--3--3--

Intro

Verse 1 mit sp├Ąterem Einstieg und Ende

G|--------------------------------------------------------------------
D|--------------------------------------------------------------------
A|-----0--0--0--0--3--------------------------------------------------
E|--------------------1--1--1--1--3--0--0--0--0--3--5--5--5--3--3--3--

Refrain
G|--------------12----------------------------12-14-------------------------------2-----
D|-----------14----14-12-------------14-14----------------------------3--------2-----2--
A|--5--5--12-------------14----------------15-------------------------------------------
E|--------------------------5--5--12----------------8--8--8---8\1--1-----0--0-----------

G|--------------12----------------------------12-14----------------------------------2-----
D|-----------14----14-12-------------14-14-------------------------------3--------2-----2--
A|--5--5--12-------------14----------------15----------------------------------------------
E|--------------------------5--5--12----------------8--8--8--8---8\1--1-----0--0-----------

G|-----------------------------------------------------------------------14-14-14-14-14-14-
D|-----------------------------------------------------------------------------------------
A|--5--5--5--5--5--5--5--5--7--7--7--7--7--7--7--7-----------------3-----------------------
E|--------------------------------------------------5--5--0--3--5-----5--------------------
Vereinfacht:strumming: d/ d/ d/u d/u/ d/ d/u 
G|-----------------------------------------------------------------------------------------------------------------------------
D|-----------------------------------------------------------------------------------------------------------------------------
A|-----5--5--5--5--5--5--5--5--5-----------------------------------------------------------------------------------------------
E|--------------------------------5--5--5--5--5--5--5--5--5--8--8--8---8\1--1--1--1--1--1--1--1--1--0--0--0--0--0--0--0--0--0--

Solo
G|--------7-----5-----------------------------------------------------------------------------------
D|-----------7-----7--5--2--------------------------------3--3--3--3--0--1--2--2--------------------
A|--5--5--------------------------------3-----------------------------------------------------------
E|--------------------------5--5--3--5-----5--3--0--1--1--------------------------0--0--0--3--3--3--
Vereinfacht: (strumming wie refrain
G|-----------------------------------------------------------------------------------------------------
D|-----------------------------------------------------------------------------------------------------
A|--5--5--5--5--5--5--5--5-----------------------------------------------------------------------------
E|--------------------------5--5--5--5--5--5--5--5--1--1--1--1--1--1--1--1--0--0--0--0--0--0--0--0--0--

Refrain



tabs and chords, guitar tabs, music transcription, music technology, deep learning, music information retrieval, transcribe into tabs & chords, chordify, music renditions, songsterr, reverbnation, tabulature, bollywood chords, ultimate guitar, yousician, guitar lessons, acoustic guitar, electric guitar, guitar tuner, 911 tabs