Guitar Tabs for Aquarela

E|--------3--3-----2--0-----------3--3-----2--0-----------0-----0--------------3--3-----2--0-----------3--3-----2--0-----------0--------------
B|--3--3--------------------3--3--------------------3--3-----------------3--3--------------------3--3--------------------3--3-----3--1--------
G|--------------------------------------------------------------------------------------------------------------------------------------------
D|--------------------------------------------------------------------------------------------------------------------------------------------
A|--------------------------------------------------------------------------------------------------------------------------------------------
E|--------------------------------------------------------------------------------------------------------------------------------------------


E|--------8--8-----7--5-----------8--8-----7--5--------------5--5--------
B|--8--8--------------------8--8--------------------8--8--8--------------
G|-----------------------------------------------------------------------
D|-----------------------------------------------------------------------
A|-----------------------------------------------------------------------
E|-----------------------------------------------------------------------

E|--------3--3-----2--0-----------3--3-----2--0-----------3--------5-----3--------
B|--3--3--------------------3--3--------------------3--3--------------------------
G|--------------------------------------------------------------------------------
D|--------------------------------------------------------------------------------
A|--------------------------------------------------------------------------------
E|--------------------------------------------------------------------------------

E|--------------------------7--8--7-----------------------------------------7-----------
B|--8-----8--10----8--------------------10----8-----8--10----8--8--------10----10-------
G|--------------------------------------------------------------------------------------
D|--------------------------------------------------------------------------------------
A|--------------------------------------------------------------------------------------
E|--------------------------------------------------------------------------------------

E|-----------------------------7--8--7--------------------------------------------7-----------
B|-----8-----8--10----8--------------------10----8-----8--10----8--8--------8--10----10-------
G|--------------------------------------------------------------------------------------------
D|--------------------------------------------------------------------------------------------
A|--------------------------------------------------------------------------------------------
E|--------------------------------------------------------------------------------------------

E|--7-----8--7-------8--7---8--7--8--7--------------------------------------------7--------------
B|--------------------------------------10----8-----8-----10----8--7--8-----8--10----10-8-----10-
G|-----------------------------------------------------------------------------------------------
D|-----------------------------------------------------------------------------------------------
A|-----------------------------------------------------------------------------------------------
E|-----------------------------------------------------------------------------------------------

E|--7-----8--7-----8--7-----8--7--8--7--------------------------------------------7-----------------------7---------------
B|--------------------------------------10----8-----8-----10----8--7--8-----8--10----10-8-----10-------10----10-------8--8-----
G|-----------------------------------------------------------------------------------------------------------------------------
D|--------------------------------------------------------------------------------------------------------------------------
A|--------------------------------------------------------------------------------------------------------------------------
E|--------------------------------------------------------------------------------------------------------------------------


tabs and chords, guitar tabs, music contests, music covers, songsterr, reverbnation, renditions, tabulature, bollywood chords, ultimate guitar, yousician, guitar lessons, torrins, fender, gibson, acoustic guitar, electric guitar, youtube covers, gootar, guitar tuner, A-Z tabs, 911 tabs